Log in

One click and you are in

Login with Facebook Login with Google

Why sign up and log in

Guitar Tabs Explorer
Passion chords for Refiners fire

Guitar chords

Tabbed by samuel.galima@usma.edu
http://www.youtube.com/watch v=iEXnrmx3HSw

CAPO 4

     E/G#
-----2--0-----------(0)--(2)--(2)--------------------------------------------|
-----3--3----2-------2----3----3~----3-----5---------------------------------|
-----2--0----0-------2----0----2~----2-----4---------------------------------|
-----0--2----2-------0----4----0~----0-----0---------------------------------|
--------0----1-------2----------~--------------------------------------------|
--------------------------0----2-----3-----4---------------------------------|
INTRO
     A chord diagramA7A7
---0h2---------------------0------x-------0-----------------------0----0-||
--3---3------2---2---2-----2~---3-x--3---3-3---3---3-2---2-3---3--3---3--||
-2-----2----0---0---2-2----2~---0-x--0--0---0--0--0--0--0--0--0---0-0---*||
0----------2---2---0---0---0~---4-x--4-4-----4-2-2---2-2---0-0----------*||
----------0---1---2-----2--2~-----x------------0-----0-----2------4------||
------------------------------0---x-0------------------------------------||


VERSE 1:
A chord diagramBm9Bm9
Purify my heart
             A chord diagramA7A7
let me be as gold and precious silver
A chord diagramBm9Bm9
Purify my heart,
	     A chord diagramA7A7
let me be as gold, pure gold


CHORUS:
A chord diagramA7A7
Refiner's fire
A chord diagramA7A7 A chord diagramBbdim7Bbdim7
My heart's one desire
A chord diagramE minor 7Em7
is to be holy
A chord diagramA7A7 A chord diagramBbdim7Bbdim7
set apart (only) for You Lord.
A chord diagramE minor 7Em7
I choose to be holy
A chord diagramA7A7
set apart for you my master,
A chord diagramD MajorD
ready to do your will.


VERSE 2:
Purify my heart,
cleanse me from my sin and make me holy.
Purify my heart,
cleanse me from my sin, deep within.


CHORUS x2

Almost there ...

Sign in to get your own page with links to favourite songs and more. You are just one click away...

Login with Facebook Login with Google