Log in

One click and you are in

Login with Facebook Login with Google

Why sign up and log in

Guitar Tabs Explorer
Passenger chords for The way that i love you ukulele

The Way That I Love You Ukulele chords by Passenger

Passenger chords for The way that i love you ukulele

Guitar chords with lyrics

  • Capo on 1st
Tuning: G C E A (G C E A)


Intro:
  C         Em        Dm7        G7    G6
A|-----------------|-----0-----------|-------3---------|-2-0-------------|
E|-----0-3---0---0-|-3-----3-------0-|-1---1-----1---1-|-1---3-1-0-------|
C|-0-----------0---|---0-------0-----|---2---------2---|-2---------2-0-2-|
G|-----------------|-0---------------|-2---------------|-0---------------|
  1 + 2 + 3 + 4 +  1 + 2 + 3 + 4 +  1 + 2 + 3 + 4 +  1 + 2 + 3 + 4 +
  C         Em        Dm7        G7      C
A|-----------------|-----0-----------|-------3---------|-2-0-2-3s5---2-3-|
E|---0-------0-----|-3-----3-------0-|-1---1-----1-----|-1---------------|
C|-2---0-2-------0-|---0-------0-----|---2-------------|-2---------------|
G|-0---------------|-0---------------|-2---------------|-0---------------|
  1 + 2 + 3 + 4 +  1 + 2 + 3 + 4 +  1 + 2 + 3 + 4 +  1 + 2 + 3 + 4 +


Intro:
C Em Dm7 G7 x2


Verse 1:
C     Em     Dm7
 How many times can I tell you
    G7
You're lovely just the way you are?
C        Em       Dm7
 Don't let the world come and change you
G7             Am
Don't let life break your heart
          Em            Dm7
Don't put on their mask, don't wear their disguise
            G7
Don't let them dim the light that shines in your eyes


Chorus:
C          Am        Dm7   G7
 If only you could love yourself the way, that I love you


Instrumental:
  C         Em        Dm7        G7    G6
A|-----------------|-----0-----------|-------3---------|-2-0-------------|
E|-----0-3---0---0-|-3-----3-------0-|-1---1-----1---1-|-1---3-1-0-------|
C|-0-----------0---|---0-------0-----|---2---------2---|-2---------2-0-2-|
G|-----------------|-0---------------|-2---------------|-0---------------|
  1 + 2 + 3 + 4 +  1 + 2 + 3 + 4 +  1 + 2 + 3 + 4 +  1 + 2 + 3 + 4 +

  C         Em        Dm7        G7
A|-----------------|-----0-----------|-------3---------|-2-0-2-3s5---2-3-|
E|---0-------0-----|-3-----3-------0-|-1---1-----1-----|-1---------------|
C|-2---0-2-------0-|---0-------0-----|---2-------------|-2---------------|
G|-0---------------|-0---------------|-2---------------|-0---------------|
  1 + 2 + 3 + 4 +  1 + 2 + 3 + 4 +  1 + 2 + 3 + 4 +  1 + 2 + 3 + 4 +


Verse 2:
C      Em     Dm7
 How many times can I say
G7
You don't have to change a thing?
C        Em       Dm7
 Don't let the tide wash you away
     G7          Am
Don't let worry ever clip your wings
         Em         Dm7
Discard what is fake, keep what is real
        G7           C
Pursue what you love, embrace how you feel


Chorus:
         Am         Dm7   G7
If only you could love yourself the way that I love you

Fill:
C*


Bridge:
F      E7      Am           D7
 And if you ever choose a road that leads nowhere
  Dm7      G             C*
All alone and you can't see right from wrong
F      E7       Am      D7
 And if you ever lose yourself out there
     Dm7
Come on home
            G  Gsus4 G Gsus2 G C
And I'll sing you this song


Outro:
        Em     Dm7
 So how many times can I tell you
    G7
You're lovely just the way you are?
C        Em       Dm7
 Don't let the world come and change you
G7               C
Don't let life break your heart

Almost there ...

Sign in to get your own page with links to favourite songs and more. You are just one click away...

Login with Facebook Login with Google