Log in

One click and you are in

Login with Facebook Login with Google

Why sign up and log in

Guitar Tabs Explorer
Passenger tabs for Let her go

Guitar tabs

Difficulty: Novice

Title: Let Her Go
Tempo = 120

🏷Legend
L - tied note

A chord diagramE MajorE |-----------------0----------|-----------------------0L---|
A chord diagramBB |--------------3-----3--1----|--------1L----1-------------|
A chord diagramG+G |----------------------------|--0--2-----------2----------|
A chord diagramD MajorD |----------------------------|--------3-----------3-------|
A chord diagramA augmentedA |----------------------------|----------------------------|
A chord diagramE MajorE |----------------------------|--1-----------1-------------|

--0--------------0----------|--------------------0-------|
-----------1--3-----3--1----|--------1L-1L-1-------------|
--------2-------------------|--0--2-----------2----------|
-----3--------------0-------|--------2-----------2-------|
----------------------------|--0-----------0-------------|
--1-----------3-------------|----------------------------|

-----------------0----------|----------------------------|
--3-----------3-----3--1----|--------1L-1L-1--------1----|
-----------0----------------|--0--2-----------2L-2-------|
--------0-----------0-------|--------3-----------3-------|
----------------------------|----------------------------|
--3-----------3-------------|--1-----------1-------------|

--3--0L-0--------------0L---|--0-------------------------||
-----------1L-1--3L-3-------|-----------------------1----||
----------------------------|--------2-----------2-------||
--------3-----------0-------|-----------------2----------||
----------------------------|--0-----------0-------------||
--1-----------3-------------|----------------------------||

Other versions of Let Her Go

Let her goChords
Let her go acousticChords
Let her go ukuleleChords
Let her go (Ver. 2)Tabs
Let her go (Ver. 3)Tabs

Almost there ...

Sign in to get your own page with links to favourite songs and more. You are just one click away...

Login with Facebook Login with Google