Log in

One click and you are in

Login with Facebook Login with Google

Why sign up and log in

Guitar Tabs Explorer
Parokya Ni Edgar bass tabs for Para sayo

Bass tabs

Intro:
G|-----------------------------------------------------------------|
D|-14-16-14--9-7-6--11-13-11--9-7-6--7-9-7--14-16-14--7-x-7--9-7-6-|
A|-----------------------------------------------------------------|
E|-----------------------------------------------------------------|
B|-----------------------------------------------------------------|

G|---------------------------------------------------------------------|
D|-14-16-14--9-7-6--11-13-11--9-7-6--7-9-7--14-16-14--7s6s7--7s6s7--9-9|
A|---------------------------------------------------------------------|
E|---------------------------------------------------------------------|
B|---------------------------------------------------------------------|
Verse 1:

G|-------------------------------------------------------|
D|-2-4--2-4-2--------------------------7s6s7--7s6s7--9-9-|
A|-------------4-6--4-6-4--------------------------------|
E|-------------------------6-8--6-8-6--------------------|
B|-------------------------------------------------------|

G|-------------------------------------------------------|
D|-2-4--2-4-2--------------------------7s6s7--7s6s7--7s9-|
A|-------------4-6--4-6-4--------------------------------|
E|-------------------------6-7--6-7-6--------------------|
B|-------------------------------------------------------|


Chorus:
(1st part pause for acoustic)

Dahil para sayo..
G|-------------------------------------------------|
D|------------2-2----------------------------------|
A|-----------------2-2--4-4-----------------4-4----|
E|---------------------------4-4--5-5------------7-|
B|-------------------------------------5-5---------|

G|-------------------------------------------------------|
D|-2-4--2-4-2--------------------------7s6s7--7s6s7--7s9-|
A|-------------4-6--4-6-4--------------------------------|
E|-------------------------6-7--6-7-6--------------------|
B|-------------------------------------------------------|

Verse 2:
G|-------------------------------------------------------|
D|-2-4--2-4-2--------------------------7s6s7--7s6s7--9-9-|
A|-------------4-6--4-6-4--------------------------------|
E|-------------------------6-8--6-8-6--------------------|
B|-------------------------------------------------------|

G|-------------------------------------------------------|
D|-2-4--2-4-2--------------------------7s6s7--7s6s7--9-9-|
A|-------------4-6--4-6-4--------------------------------|
E|-------------------------6-8--6-8-6--------------------|
B|-------------------------------------------------------|

G|-------------------------------------------------------|
D|-2-4--2-4-2--------------------------7s6s7--7s6s7--7s9-|
A|-------------4-6--4-6-4--------------------------------|
E|-------------------------6-7--6-7-6--------------------|
B|-------------------------------------------------------|


Chorus:
(pause for acoustic)

Dahil para sayo..
G|-------------------------------------------------|
D|------------2-2----------------------------------|
A|-----------------2-2--4-4-----------------4-4----|
E|---------------------------4-4--5-5------------7-|
B|-------------------------------------5-5---------|

G|-------------------------------------------------------|
D|-2-4--2-4-2--------------------------7s6s7--7s6s7--7s9-|
A|-------------4-6--4-6-4--------------------------------|
E|-------------------------6-7--6-7-6--------------------|
B|-------------------------------------------------------|


Instrumental:
G|---------------------------------------------------|
D|-2-4--2-4-2----------------------------------------|
A|-------------4-6--4-6-4----------------------------|
E|-------------------------6-7--6-7-6--4-6--4-6-4--5-|
B|---------------------------------------------------|

G|----------------------------------------------------------|
D|-2-4--2-4-2-----------------------------------------------|
A|-------------4-6--4-6-4-----------------------------------|
E|-------------------------6-7--6-7-6--4-6--4-6-4--11s12s---|
B|------------------------------------------------(brooom)--|


Verse 3: (katakot - bass solo)
G|--------------------------------------------------------------------------|
D|-----6-7-9-7-6-----6-7-9-7-6----------------------------------------------|
A|-7-7-----------7-7--------------------------------------------------------|
E|------------------------------9-9-11-11-12-11-10-9-9-9-11-11-12-11-10-9-9-|
B|--------------------------------------------------------------------------|

G|--------------------------------------------------------------|
D|--------------------------------------------------------------|
A|--------------------------------------------------------------|
E|-4-4-5-5-6-6-4-4-4-4-5-5-6-6-4-4--5-5-6-6-7-7-5-5-5-5-6-6-7-7-|
B|--------------------------------------------------------------|


G|--------------------------------------------------------------------------|
D|-----6-7-9-7-6-----6-7-9-7-6----------------------------------------------|
A|-7-7-----------7-7--------------------------------------------------------|
E|------------------------------9-9-11-11-12-11-10-9-9-9-11-11-12-11-10-9-9-|
B|--------------------------------------------------------------------------|

G|------------------------------------|
D|------------------------------------|
A|------------------------------------|
E|-4-4-5-5-6-6-4-4-4-4-5-5-6-6-4-4--5-|
B|------------------------------------|


Chorus:
(pause for acoustic)

Dahil para sayo..
G|----------------------------------------------|
D|------------2-2-------------------------------|
A|-----------------2-2--4-4-----------------4-4-|
E|---------------------------4-4--5-5-----------|
B|-------------------------------------5-5------|

G|------------------------------------------------|
D|-2-4--2-4-2-------------------------------------|
A|-------------4-6--4-6-4-------------------------|
E|-------------------------6-7--6-7-6--4-6--4-6-4-|
B|------------------------------------------------|

G|------------------------------------------------|
D|-2-4--2-4-2-------------------------------------|
A|-------------4-6--4-6-4-------------------------|
E|-------------------------6-7--6-7-6--4-6--4-6-4-|
B|------------------------------------------------|

G|------------------------------------------------|
D|-2-4--2-4-2-------------------------------------|
A|-------------4-6--4-6-4-------------------------|
E|-------------------------6-7--6-7-6--4-6--4-6-4-|
B|------------------------------------------------|

G|---------------------------------------------------------|
D|-2-4--2-4-2--------------------------7s6s7--7s6s7--9-9---|
A|-------------4-6--4-6-4--------------------------------7-|
E|-------------------------6-7--6-7-6----------------------|
B|---------------------------------------------------------|

thanks for trying my tab :)

Almost there ...

Sign in to get your own page with links to favourite songs and more. You are just one click away...

Login with Facebook Login with Google