Log in

One click and you are in

Login with Facebook Login with Google

Why sign up and log in

Guitar Tabs Explorer
Parokya Ni Edgar bass tabs for Papa cologne

Bass tabs

Please Rate after using...


Verse: D-G x2
G|-----------------77------------------------------|
D|---------5-4h5-----7-----5-5s7-4-5-4h5-----------|
A|-5-4h5----5----------5------------5--------------|
E|--5----------------------------------------------|
Pre-Chorus: Bm-A-G x2
G|-------------------------------------------------|
D|----------------4---------4----5-4h5-7-----------|
A|---5-7-9----4-7------5-7------5-5----------------|
E|-7--------5--------3---------3-------------------|

G|-------------------------------------------------|
D|----------------------4--------------4-----7~----|
A|---5-7-9-7-5------4-7---7-4------5-7---7-5-------|
E|-7-----------7--5-----------5--3-----------------|


Chorus: D-G x2
G|-----------7-6---------7-7h9p5-11s12-11----------|
D|---------------7-5---------------------12--------|
A|-5-55-55------------55-------------------10------|
E|-------------------------------------------------|

Adlib: D-G-D-G-Bm-A-G-Bm-A-G
G|-----------------------------77-----7h9p7-11s12-1212----12121212-|
D|-------7-7h9-7-5-4h5-----7-5----7-------------------12-----------|
A|-5-4h5----------5-----55----------5-------------------10---------|
E|--5--------------------------------------------------------------|

G|-------------------------------------------------|
D|----------------4---------4----5-4h5-7-----------|
A|---5-7-9----4-7------5-7------5-5----------------|
E|-7--------5--------3---------3-------------------|

G|-------------------------------------------------|
D|----------------------4--------------4-----7~----|
A|---5-7-9-7-5------4-7---7-4------5-7---7-5-------|
E|-7-----------7--5-----------5--3-----------------|

My name is Peter North and I'm
from Houston, Colorado
I play a lot of tennis
and I Know a little judo
My darling likes me smelling good
It always turns her on
That's why I always use Papa Cologne: D-G-D-G

G|---7~-7-6------------7s9-7~--12-11----12~--1212--|
D|---------7-5--5~------------------12-------------|
A|-5---------------5~-5---------------10-----------|
E|-------------3-----------------------------------|

| s slide
| h hammer-on
| p pull-off
| ~ vibrato

Almost there ...

Sign in to get your own page with links to favourite songs and more. You are just one click away...

Login with Facebook Login with Google