Log in

One click and you are in

Login with Facebook Login with Google

Why sign up and log in

Guitar Tabs Explorer
Parokya Ni Edgar bass tabs for Ordertaker

Bass tabs

Intro:

G|------------------|
D|------------------| X2
A|3333333322222222--|
E|------------------|

G|------------------------------------------------|
D|------------------------------------------------|
A|------------------------------3333333322222222--|
E|3-2-0---3-2-0---3-2-0---3-2-0-------------------|

G|-----------------|
D|-----------------|
A|3333333322222222-|
E|-----------------|

G|---------------------------------------------------------|
D|---------------------------------------------------------|
(I'm not sure about the E|3-3-3 part and the A|5-5-5 part)
A|7-7-7-7-7-7---------5-5-5----7-7-7-7-7-7----3-3-3--2-2-2-|
E|--------------3-3-3--------------------------------------|


Chorus:
G|----------------------------------------------------------------|
D|----------------------------------------------------------------|
A|77-----77777777--66---66666666--77-----77777777--66-----66666666|X3
E|----------------------------------------------------------------|
 (follow with the lyrics)

G|-----------------|
D|-----------------|
A|3333333322222222-|X2
E|-----------------|

G|----------------------------------------------|
D|----------------------------------------------|
A|------------------------------333333332222222-|
E|3-2-0---3-2-0---3-2-0---3-2-0-----------------|

G|------------------------------------------------------|
D|------------------------------------------------------|
A|7-7-7-7-7-7-------5-5-5----7-7-7-7-7-----3-3-3--2-2-2-|
E|------------3-3-3-------------------------------------|

Repeat Chorus

G|------------------------------|
D|------------------------------|
A|---------------000000--111111-|X6
E|222222--111111----------------|

G|-----------------|
D|-----------------|
A|3333333322222222-|X2
E|-----------------|

G|-------------------------------------------|
D|-------------------------------------------|
A|---------------------------333333332222222-|
E|3-2-0--3-2-0--3-2-0--3-2-0-----------------|

G|-----------------|
D|-----------------|
A|3333333322222222-|X2
E|-----------------|

Almost there ...

Sign in to get your own page with links to favourite songs and more. You are just one click away...

Login with Facebook Login with Google