Log in

One click and you are in

Login with Facebook Login with Google

Why sign up and log in

Guitar Tabs Explorer
Parokya Ni Edgar tabs for One moment

Guitar tabs

Tuning: { e b g d A chord diagramA augmentedA A chord diagramE MajorE }


Intro-
|---------------------------------------------------|
|---------------------------------------------------|
|------4-5-6--6-------------4-4-3-2-3---------------|
|-6-6--4-5-6--6--6-5-4--4---4-4-3-2-3---------------|2X
|-6-6--2-3-4--4--6-5-4--4---2-2-1-2-1---------------|
|-4-4------------4-3-2--2---------------------------|

Verse-
patakbo...          ibat iba...  pinatutunguhaan...
|--4-4-4-4-X-X-X-X-2-2-2-2-2-2------------------------------------|
|--4-4-4-4-6-6-6-6-2-2-2-2-2-2------------------------------------|
|--5-5-5-5-6-6-6-6-3-3-3-3-3-3---4-4-4-3-3-3----------------------|2X
|--6-6-6-6-6-6-6-6-4-4-4-4-4-4---4-4-4-3-3-3----------------------|
|--6-6-6-6-4-4-4-4-4-4-4-4-4-4---2-2-2-1-1-1----------------------|
|--4-4-4-4---------2-2-2-2-2-2------------------------------------|


iNTRO ULI..


Verse2-
ng bilis ng mundo...
|--4-4-4-4-X-X-X-X-2-2-2-2-2-2------------------------------------|
|--4-4-4-4-6-6-6-6-2-2-2-2-2-2------------------------------------|
|--5-5-5-5-6-6-6-6-3-3-3-3-3-3---4-4-4-3-3-3----------------------|2X
|--6-6-6-6-6-6-6-6-4-4-4-4-4-4---4-4-4-3-3-3----------------------|
|--6-6-6-6-4-4-4-4-4-4-4-4-4-4---2-2-2-1-1-1----------------------|
|--4-4-4-4---------2-2-2-2-2-2------------------------------------|

cHORUS
A chord diagramA augmentedA cup in hand....
|--4--|--x--|--4---|---x-------------------------------|
|--4--|--6--|--4---|---6-------------------------------|
|--3--|--6--|--4---|---6-------------------------------|2x
|--6--|--6--|--6---|---6-------------------------------|
|--6--|--4--|--6---|---4-------------------------------|
|--4--|-----|--4---|-----------------------------------|

tumambay...
|----|----|-----|----|----|-----|----------------------------|
|----|----|-----|----|----|-----|----------------------------|
|-3--|--5-|--6--|--3-|-5--|--6--|---8------------------------|
|-3--|--5-|--6--|--3-|-5--|--6--|---8------------------------|
|-1--|--3-|--4--|--1-|-3--|--4--|---6------------------------|
|----|----|-----|----|----|-----|----------------------------|


iNTRO ULI..


verse


cHORUS2
A chord diagramA augmentedA cup in hand....
|--4--|--x--|--4---|---x-------------------------------|
|--4--|--6--|--4---|---6-------------------------------|
|--3--|--6--|--4---|---6-------------------------------|2x
|--6--|--6--|--6---|---6-------------------------------|
|--6--|--4--|--6---|---4-------------------------------|
|--4--|-----|--4---|-----------------------------------|

tumambay...     may..           one moment..one nescafe
|----|----|-----|----|----|-----|--------|-----6-------|
|----|----|-----|----|----|-----|--------|-----6-------|
|-3--|--5-|--6--|--3-|-5--|--6--|---8----|-----4-------|
|-3--|--5-|--6--|--3-|-5--|--6--|---8----|-----6-------|
|-1--|--3-|--4--|--1-|-3--|--4--|---6----|-----6-------|
|----|----|-----|----|----|-----|--------|-----4-------|

Other versions of One Moment

One momentChords

Almost there ...

Sign in to get your own page with links to favourite songs and more. You are just one click away...

Login with Facebook Login with Google