Log in

One click and you are in

Login with Facebook Login with Google

Why sign up and log in

Guitar Tabs Explorer
Parokya Ni Edgar tabs for Oka tokat

Guitar tabs

e------------------------------------------|
b-----0--0------0--0------0--0------0--0---|
g----0--0--0---0--0--0---0--0--0---0--0--0-|
d---2--2--2---1--1--1---0--0--0------------|(repeat one more time)
a--------------------------------4---4--4--|
e------------------------------------------|
(then)
e-------------------------------------|
b-------------------------------------|
g-----3--3------2--2------3--3------2-|
d----2--2--2---1--1--1---2--2--2---1--|
a---3--3--3---2--2--2---3--3--3---2---|
e-------------------------------------|

chords for lyric part: e-f#-a-f#-e-f#
then e-f#-a-b-c-b-a-f#-e
That's all. it'll be weird at first but you'll get use to it.

Almost there ...

Sign in to get your own page with links to favourite songs and more. You are just one click away...

Login with Facebook Login with Google