Log in

One click and you are in

Login with Facebook Login with Google

Why sign up and log in

Guitar Tabs Explorer
Parokya Ni Edgar tabs for Nakaw ang walet ko

Guitar tabs

nakaw ang wallet ko
parokya ni edgar
(shawo)


intro:(clean passage)
     A chord diagramG+G           A chord diagramD MajorD                A chord diagramC majorC
e-3--3-----3|-2----3-2-3|-0------0-------------0|
b-3----3----|-3--3------|-1--0h1---1---1--0h1--1|
g-0------0--|-2---------|-0----------0---------0|
d-0---------|-0---------|-2--------------------2|
a-2---------|-----------|-3--------------------3|
e-3---------|-----------|-0--------------------0|

e-------------
b-------------
g-------------
d------7~---5~
a--5~--5~---3~
e--3~---------

1st verse: same as intro but without powerchords

mama, anong pangalan nyo?
saan na rin ang bahay mo
makikikain lang ako
kapag nanakaw ang wallet ko


chorus: same as intro

nak-nak-nakaw ang wallet ko
nak-nak-nakaw ang wallet ko
nak-nak-nakaw ang wallet ko
nak-nak-nakaw ang wallet ko...oooooo yeahhh

solo:(distortion)
e----------------------------------------------------------
b--------------------15-----------------------13s15--13-12-
g--11s12--14^--12-14-----14^-12-12~---------12-------------
d---------------------------------------s14----------------
a----------------------------------------------------------
e----------------------------------------------------------

e---------------------------------------------15-------
b--13-12-13s15~----13-12-13--13p12------12-13-----13-12
g------------------------------------------------------
d----------------------------------14~-----------------
a------------------------------------------------------
e------------------------------------------------------

e--------15-17^-17-17^-17^-15~---22^^-20-19-20--22^-20-19-20--19-----
b----s17---------------------------------------------------------17~-
g--------------------------------------------------------------------
d--------------------------------------------------------------------
a--------------------------------------------------------------------
e--------------------------------------------------------------------

e---------------------------------------
b---15^~~--15^~~------------------------
g-----------------14^~~--14^~~---14--12~
d---------------------------------------
a---------------------------------------
e---------------------------------------

2nd verse: same as 1st verse

mama pakidagdag na lang ng sabaw
kapag gutom na talaga ako
mababayaran ko rin kayo
kapag mahanap ko ang wallet ko

repeat chorus


outro:(distortion)
e---------------------------------------------------------
b---20~-----20-19---20-19--17-19p17-17~---20-17--20-17--15
g---------------------------------------------------------
d---------------------------------------------------------
a---------------------------------------------------------
e---------------------------------------------------------

e------------15------------------15----------------------
b--13-15-12~----15--12-10----------15---10s12--10s12-----
g--------------------------12s14----------------------12~
d--------------------------------------------------------
a--------------------------------------------------------
e--------------------------------------------------------

e----------15----17s19--17-15-17-15--20-19-20-22~--20-19-20-22-20-19-20
b--------15---15-------------------------------------------------------
g--14s16---------------------------------------------------------------
d----------------------------------------------------------------------
a----------------------------------------------------------------------
e----------------------------------------------------------------------

e--22^^-22^^--20-19-20-19-------------------------
b--------------------------22^^-22^--22-20-22-20~~
g-------------------------------------------------
d-------------------------------------------------
a-------------------------------------------------
e-------------------------------------------------

e-------------------------------------------------------------
b--20~~--20-19~--20-19--17-19p17-17~--20-17--20-17--13--15-12~
g-------------------------------------------------------------
d-------------------------------------------------------------
a-------------------------------------------------------------
e-------------------------------------------------------------

e--------------------------------------------
b--------------------------------------------
g--12^~~--12-11^~~--11-9^~~---7~--5s4--0~~~~~
d--------------------------------------------
a--------------------------------------------
e--------------------------------------------

Almost there ...

Sign in to get your own page with links to favourite songs and more. You are just one click away...

Login with Facebook Login with Google