Log in

One click and you are in

Login with Facebook Login with Google

Why sign up and log in

Guitar Tabs Explorer
Parokya Ni Edgar bass tabs for Mr suave

Bass tabs with lyrics

Tuning: standard
🏷Legend: h - hammer
    .. - no definite times to pluck

-i'm 100% sure in this tab!

*note that riff 2 is played by two fingers, index and middle finger.
i don't know the right term, index for 'E-A' string ; middle for 'D-G' string..
-all upstroke

-i wrote the lyrics for convinience...so rate it!

riff1
-enter after
 subok na...
   B-Em- A -F#--B - Em -F# - FhF#
G|-----------------------------------|
D|-----------------------------------|
A|------7-----9-------7---9----8h9---|
E|---7-----5------7------------------|


riff2
G|------------------7--7--7--7..--------------9--9--9--9..-|
D|---7--7--7--7..---------------5--5--5--5..---------------|
A|----------------7--7--7--7-----------------9--9--9--9----|
E|-7--7--7--7-----------------5--5--5--5-------------------|


G|------------------7--7--7--7..----9--9--9--9..------|
D|---7--7--7--7..-------------------------------------|
A|----------------7--7--7--7------9--9--9--9----8-h9--|
E|-7--7--7--7-----------------------------------------|


-lyrics
nasa ulap ba ang yong mga mata
mukhang malayo ang yong pagtingala
pakay ko lamang na ika'y pangitiin
ito'y aking lambing

riff1
subok na ang aking pag-ibig
ikaw lamang sa buong daigdig
tumitibok na puso ko'y dinggin
sumama ka na sa akin

riff2
ako si mr. suave
oh! ho ho oh grabe
habulin ng babae
araw man o gabi
oh oh ako si mr. suave
oh! ho ho oh grabe
hayop kung dumiskarte
wala silang masabi/grabe sa suave

riff2
kaya't wag ka ng malikot
problema'y ibaon sa limot
pagkat nandito lang ako
umiibig sa'yo

riff2
hoy hoy hoy hoy

riff1
at kung kailangan na ika'y paligayahin
hwag mag alinlangan na ika'y lumapit sa'kin
hatid sa atin ng suave kong bigote
ang smooth na smooth na kilite


********
-i love the song that's why i tab it out! love it too... i dedicate this to someone
who inspires me everyday.can you email me some skate related pics' para sa nag
txt sa 'kin sori nxt tym nalng , wla ko album ng river maya... for my other tabs
type kamikaze or my friends
over you by 'nfg'in the search menu to see it... pls rate my tabs. but don't copy it!


/FLipsept02.03
rdjn.

Almost there ...

Sign in to get your own page with links to favourite songs and more. You are just one click away...

Login with Facebook Login with Google