Log in

One click and you are in

Login with Facebook Login with Google

Why sign up and log in

Guitar Tabs Explorer
Parokya Ni Edgar tabs for Maniwala ka sana

Guitar tabs

MANIWALA KA SANA (Minamahal kita)
Parokya ni Edgar

johnsantos_17@yahoo.com

Standard Tuning (EADGBE)

I. Intro.

Gtr. 1 ( A chord diagramC majorC ^Ö Am- F- A chord diagramG+G )

E--0----0----0----0-----0---0---0---0------1----1----0---1-----3---3---0---x--
B--1----1----0----1-----1---1---0---1------1----1----0---1-----3---3---0---3--
G--0----0----0----0-----2---2---2---2------2----2----2---2-----4---4---4---4--
D--2----2----2----2-----2---2---2---2------3----3----3---3-----5---5---5---5--
A--3----3----3----3-----0---0---0---0------3----3----3---3-----5---5---5---5--
E------------------------------------------1----1----x---1-----3---3---3---3--

Gtr. 2

Riff 1
E----8------12------13-----15---
B----8------13------13-----15---
G----9------14------14-----16---
D---10------x-------15-----17---
A-------------------------------
E-------------------------------


Riff 2
E-----------------------------------
B-----------------------------------
G--5-4-5----5-4-5----5-4-5----7-9-7-
D-----------------------------------
A-----------------------------------
E-----------------------------------

II. Verse (Gtr. 1 play the same as intro)
   (Gtr. 2 do Riff 2)

III. Pre-chorus
 (Gtrs. 1 & 2)
 A chord diagramA minorAmA chord diagramC majorCA chord diagramFFA chord diagramG+G

IV. Chorus
 (Gtrs. 1 & 2)
 A chord diagramC majorCA chord diagramG+GA chord diagramA minorAmA chord diagramFF

V. Adlib
 Gtr. 1- play the chords of the verse up to the pre-chorus
 Gtr. 2

E--------------------------------------------------
B--------------------------------------------------
G---9-9-10-7---------------------------------------
D----------------7-5-------------------------------
A----------------------5-7--*--7-5-7-8-7-----------
E---------------------------------------------8-*--
*-pause

E---------------------7-h-8-8-sl/--10--8-7-------------------
B---------------------8-----------------------10-8-6-5-------
G-----------5-*------7----------------------------------7-5--
D---5-h-7----------------------------------------------------
A------------------------------------------------------------
E------------------------------------------------------------

E------------------------------------------------------------
B--------------------------6-6-5-5-6--6666-------------------
G----4-4-5-sl/-7-5-5-7---------------------------------------
D--7---------------------------------------------------------
A------------------------------------------------------------
E------------------------------------------------------------

E--------------8-7-8-8-sl/-10-10-8-8-10-sl/-13-13------------
B---6-sl/-10-------------------------------------------------
G------------------------------------------------------------
D------------------------------------------------------------
A------------------------------------------------------------
E------------------------------------------------------------

E---12-12-13-13-sl/-15-15-15-15-sl\---------------------------
B-------------------------------------------------------------
G-------------------------------------------------------------
D-------------------------------------------------------------
A-------------------------------------------------------------
E-------------------------------------------------------------

Repeat verse & Chorus..

Other versions of Maniwala Ka Sana

Maniwala ka sanaChords

Almost there ...

Sign in to get your own page with links to favourite songs and more. You are just one click away...

Login with Facebook Login with Google