Log in

One click and you are in

Login with Facebook Login with Google

Why sign up and log in

Guitar Tabs Explorer
Parokya Ni Edgar bass tabs for Mang jose

Bass tabs

intro/prechorus/chorus/solo
G|---------------------------------------------|
D|---------------------------------------------|
A|--7-7-7-7-7-7-7-7-7-7-7-7-7-7-7-7------------|
E|---------------------------------------------|

G|---------------------------------------------|
D|---------------------------------------------|
A|---------------------------------------------|
E|--5-5-5-5-5-5-5-5-5-5-5-5-5-5-5-5------------|

G|---------------------------------------------|
D|---------------------------------------------|
A|--5-5-5-5-5-5-5-5-5-5-5-5-5-5-5-5------------|
E|---------------------------------------------|

G|---------------------------------------------|
D|---------------------------------------------|
A|---------------------------------------------|
E|--7-7-7-7-7-7-7-7-7-7-7-7-7-7-7-7------------|


verse 1
G|---------------------------------------------|
D|---------------------------------------------|
A|--7-7-7-7-7-7-7-7-7-7-7-7-7-7-7-7------------|
E|---------------------------------------------|

G|---------------------------------------------|
D|---------------------------------------------|
A|---------------------------------------------|
E|--5-5-5-5-5-5-5-5-5-5-5-5-5-5-5-5------------|

G|---------------------------------------------|
D|---------------------------------------------|
A|--5-5-5-5-5-5-5-5-5-5-5-5-5-5-5-5------------|
E|---------------------------------------------|

G|---------------------------------------------|
D|---------------------------------------------|
A|---------------------------------------------|
E|--7-7-7-7-7-7-7-7-7-7-7-7-7-7-7-7------------| 2x

G|---------------------------------------------|
D|---------------------------------------------|
A|--7-7-7-7-7-7-7-7-9-9-9-9-10-10-10-10--------|
E|---------------------------------------------|

G|---------------------------------------------|
D|---------------------------------------------|
A|---------------------------------------------|
E|--5-5-5-5-5-5-5-5-5-5-5-5-5-5-5-5------------|

G|---------------------------------------------|
D|---------------------------------------------|
A|--5-5-5-5-5-5-5-5-7-7-7-7-9-9-9-9------------|
E|---------------------------------------------|

G|---------------------------------------------|
D|---------------------------------------------|
A|---------------------------------------------|
E|--7-7-7-7-7-7-7-7-7-7-7-7-7-7-7-7------------|

verse 2
G|---------------------------------------------|
D|---------------------------------------------|
A|--7-7-7-7-7-7-7-7-7-7-7-7-7-7-7-7------------|
E|---------------------------------------------|

G|---------------------------------------------|
D|---------------------------------------------|
A|---------------------------------------------|
E|--5-5-5-5-5-5-5-5-5-5-5-5-5-5-5-5------------|

G|---------------------------------------------|
D|---------------------------------------------|
A|--5-5-5-5-5-5-5-5-5-5-5-5-5-5-5-5------------|
E|---------------------------------------------|

G|---------------------------------------------|
D|---------------------------------------------|
A|---------------------------------------------|
E|--7-7-7-7-7-7-7-7-7-7-7-7-7-7-7-7------------| 2x

G|---------------------------------------------|
D|---------------------------------------------|
A|--7-7-------7-7------7-7------7-7------------|
E|---------------------------------------------|

G|---------------------------------------------|
D|---------------------------------------------|
A|---------------------------------------------|
E|--5-5-------5-5------5-5------5-5------------|

G|---------------------------------------------|
D|---------------------------------------------|
A|--5-5-------5-5------5-5------5-5------------|
E|---------------------------------------------|

G|---------------------------------------------|
D|---------------------------------------------|
A|---------------------------------------------|
E|--7-7-------7-7------7-7------7-7------------| 2x

-----------------------------------------------------

ending

  te-te-tenk-tenk-tenk!
G|---------------------------------------------|
D|---------------------------------------------|
A|-7--7--7----5----7---------------------------|
E|---------------------------------------------|

Almost there ...

Sign in to get your own page with links to favourite songs and more. You are just one click away...

Login with Facebook Login with Google