Log in

One click and you are in

Login with Facebook Login with Google

Why sign up and log in

Guitar Tabs Explorer
Parokya Ni Edgar tabs for Macho

Guitar tabs

Koro:

(with some distortion)

e---------------------------------------------------------------------|I
b---------------------------------------------------------------------|I
g---------------------------------------------------------------------|I
d--5(hold)-----------5(hold)-------------5(hold)-----------5(hold)----|I
a--3(hold)--33-333---3(hold)--5-5-55-----3(hold)--33-333---3(hold)----|I
E-----------11-111------------3-3-33--------------11-111--------------|I

after the last kord F...while playing the A chord diagramC majorC (hold), the bass sounds like this:

e----------------|I
b----------------|I
g----------------|I
d--33333-2-------|I
a----------5-3---|I
E----------------|I

Adlib:

e---------------3333---------------------------3333-----------|I
b-----5-6-5-3--------6-5---3-5-------5-6-5-3--------6-5-------|I
g--5*---------5----------5-----5--5*---------5----------5-----|I
d-------------------------------------------------------------|I
a-------------------------------------------------------------|I
E-------------------------------------------------------------|I

*--vibrato (I guess)

guitar 2: (I think it's bass)

e-----------------------------------------------------------------------|I
b-----------------------------------------------------------------------|I
g-----------------------------------------------------------------------|I
d-----------------------------------------------------------------------|I
a--3--7-8-7-5-3--10101010-8-7-3-5-7-3---3--7-8-7-5-3--10101010-8-7-3----|I
E-----------------------------------------------------------------------|I

fin:

====pls rate!....for the chords...I refer the tab of markchordz (we have the same kord
ni edgar rules!...

Almost there ...

Sign in to get your own page with links to favourite songs and more. You are just one click away...

Login with Facebook Login with Google