Log in

One click and you are in

Login with Facebook Login with Google

Why sign up and log in

Guitar Tabs Explorer
Parokya Ni Edgar tabs for Kaleidoscope world

Guitar tabs

song:      kaleidoscope world
artist:    parokya ni edgar w/ francis m.
album:     inuman sessions vol. 1
---------------------------------------------------------------------------------------------------
intro:
e|-15-15------------------|
b|-15----10h12-10---------|
g|---------------------12-|
d|----------------12h14---|
a|------------------------|
A chord diagramE MajorE|------------------------|

         A chord diagramG+G       A chord diagramA minorAm       A chord diagramB minorBm      A chord diagramA minorAm         A chord diagramG+G         A chord diagramA minorAm       A chord diagramB minorBm           A chord diagramC majorC
e|------------------------7b~~------------------|--------------------15s17-15~-----------|
b|-------8b~~----10b~~------------10---------8~-|----8s10~---10s12s15---------12s17p15~~-|
g|----7h9-----7h9------7h9-----7h9--9~s11p9-7---|-7h9-----7h9----------------------------|
d|-7h9------------------------------------------|----------------------------------------|
a|----------------------------------------------|----------------------------------------|
A chord diagramE MajorE|----------------------------------------------|----------------------------------------|


verse chords:
  guitar1(clean): G-Am-Bm-Am-G-Am-Bm-C (4x)
  guitar2(clean):

    A chord diagramG+G    A chord diagramA minorAm   A chord diagramB minorBm    A chord diagramA minorAm         A chord diagramG+G    A chord diagramA minorAm   A chord diagramB minorBm    A chord diagramC majorC
e|---3~---5~---7~---5h6p5---|---3~---5~---7~---8h10p8---|
b|-3-3~-5-5~-7-7~--5-----5--|-3-3~-5-5~-7-7~--8------8--|
g|-4----5----7----5---------|-4----5----7----9----------|
d|--------------------------|---------------------------|
a|--------------------------|---------------------------|
A chord diagramE MajorE|--------------------------|---------------------------|

chorus1 chords:
  guitar1(clean): G-D-Bm-C(2x)-G-D-C
  guitar2(distortion):

     A chord diagramG+G      A chord diagramD MajorD      A chord diagramB minorBm     A chord diagramC majorC            A chord diagramG+G      A chord diagramD MajorD        A chord diagramC majorC
e|-----------------------------|   |----------------------------|
b|-----------------------------|   |----------------------------|
g|--------777777-444444-555555-|2x |--------777777-555555555555-|
d|-555555-777777-444444-555555-|   |-555555-777777-555555555555-|
a|-555555-555555-222222-333333-|   |-555555-555555-333333333333-|
A chord diagramE MajorE|-333333----------------------|   |-333333---------------------|

guitar1(clean): G-Am-Bm-Am-G-Am-Bm-C
guitar2(clean): (AFTER CHORUS I)
e|---------------------------------------|-----------------------------15---------|
b|----8~----10-8-8s12s13s15s17~-8-8h10p8-|----8~----10-8-8s12s13s15s17---15s17p15-|
g|-7h9---7h9-----------------------------|-7h9---7h9------------------------------|
d|---------------------------------------|----------------------------------------|
a|---------------------------------------|----------------------------------------|
A chord diagramE MajorE|---------------------------------------|----------------------------------------|


chorus2 chords:
  guitar1(clean): G-D-Bm-C(2x)-G-D-C-G-F-C
  guitar2(distortion):

     A chord diagramG+G      A chord diagramD MajorD      A chord diagramB minorBm     A chord diagramC majorC            A chord diagramG+G      A chord diagramD MajorD        A chord diagramC majorC            A chord diagramG+G            A chord diagramFF           A chord diagramC majorC
e|-----------------------------|   |---------------------------------------------------------------|
b|-----------------------------|   |---------------------------------------------------------------|
g|--------777777-444444-555555-|2x |--------777777-555555555555--------------------------5555555555|
d|-555555-777777-444444-555555-|   |-555555-777777-555555555555-55555555555-333333333333-5555555555|
a|-555555-555555-222222-333333-|   |-555555-555555-333333333333-55555555555-333333333333-3333333333|
A chord diagramE MajorE|-333333----------------------|   |-333333---------------------33333333333-111111111111-----------|

adlib:
  guitar1(clean): G-Am-Bm-Am-G-Am-Bm-C (5x)
  guitar2(clean):
e|-------------------------------------------------|------------------------------------|
b|-15h17-12--12h15p12------------------------------|--------------------13-12-----------|
g|--------------------14-12--12h14-11--------------|-----------14b~-1414-----14-12-12b~-|
d|------------------------------------12-12s14-12~-|------12-14-------------------------|
a|-------------------------------------------------|-12-14------------------------------|
A chord diagramE MajorE|-------------------------------------------------|------------------------------------|

e|-------------------------------------------------|--------------------------------------|
b|-15h17-12--12h15p12------------------------------|--------------------------------------|
g|--------------------14-12--12h14-11--------------|-----------12b~-1212-17-16-14-12-14b~-|
d|------------------------------------12-12s14-12~-|------12-14---------------------------|
a|-------------------------------------------------|-12-14--------------------------------|
A chord diagramE MajorE|-------------------------------------------------|--------------------------------------|

e|-------------------------------------|-----------------------------------------|
b|-17-15-------------------------------|-----------------------------------------|
g|------16-14--------------------------|----------------------9-12--9-12-12s14b~-|
d|-----------17-14-----------------12~-|-------9---9-12--9-12--------------------|
a|----------------17-14-12s10-12s14----|-10-12--12-------------------------------|
A chord diagramE MajorE|-------------------------------------|-----------------------------------------|

e|-15h17p15---------------|-------------------------------------|--------------------------|
b|----------15h17p15-1515-|-12---------12---------12--------12b~|-1212-15-13-12------------|
g|------------------------|---14-12-14---14-12-14---14-12-14----|--------------14-12-11----|
d|------------------------|-------------------------------------|----------------------12~-|
a|------------------------|-------------------------------------|--------------------------|
A chord diagramE MajorE|------------------------|-------------------------------------|--------------------------|

e|---------------------------------------15-----------------|
b|--------15b~---------13b~---------15b~---15-13p12-13p12b~-|
g|-12-1212------12-1212------12-1212------------------------| 2x
d|----------------------------------------------------------|
a|----------------------------------------------------------|
A chord diagramE MajorE|----------------------------------------------------------|

e|-------------------------------------------------------------|
b|---12-13-15--------12-13-15--------12-13-15----13s15b~13-12~-|
g|-12--------12b~--12-------12b~--12--------12b~---------------| 2x
d|-------------------------------------------------------------|
a|-------------------------------------------------------------|
A chord diagramE MajorE|-------------------------------------------------------------|


chorus3 chords:
  guitar1(clean): G-D-Bm-C(2x)-G-D-C---------G
  guitar2(distortion):

     A chord diagramG+G      A chord diagramD MajorD      A chord diagramB minorBm     A chord diagramC majorC            A chord diagramG+G      A chord diagramD MajorD        A chord diagramC majorC                      A chord diagramG+G
e|-----------------------------|   |-------------------------------------------|
b|-----------------------------|   |-------------------------------------------|
g|--------777777-444444-555555-|2x |--------777777-555555555555555555555555----|
d|-555555-777777-444444-555555-|   |-555555-777777-555555555555555555555555-55-|
a|-555555-555555-222222-333333-|   |-555555-555555-333333333333333333333333-55-|
A chord diagramE MajorE|-333333----------------------|   |-333333---------------------------------33-|

-----------------------------------------------------------------------------------------------

thnx 2 :
   > SenthyX Zone
   > III- St. Agnes class (s/y 08-09)
          - St. Bridget School - Buhi, Camarines Sur 4433

Other versions of Kaleidoscope World

Kaleidoscope worldChords

Almost there ...

Sign in to get your own page with links to favourite songs and more. You are just one click away...

Login with Facebook Login with Google