Log in

One click and you are in

Login with Facebook Login with Google

Why sign up and log in

Guitar Tabs Explorer
Parokya Ni Edgar tabs for Iisang sarap

Guitar tabs

/ = slide back

"Standard tuning"
Guitar 1
e-----------------------------------------------------------------|
B-----------------------------------------------------------------|
G-----------------------------------------------------------------|
D----7--7--7--7---------------------------------------------------|
A----7--7--7--7---------------------------------------------------|
E----5--5--5--5---------------------------------------------------|

Guitar 2
e-------9-9-9-10-9------------------------------------------------|
B------------------12-10------------12-10-------------------------|
G-----------------------10-10s12-10-------------------------------|
D-----------------------------------------------------------------|
A-----------------------------------------------------------------|
E-----------------------------------------------------------------|

e-----------------------------------------------------------------|
B------10-12-12s14-14-14-16-16-14-12------------------------------|
G------------------------------------14-12------------------------|
D-----------------------------------------------------------------|
A-----------------------------------------------------------------|
E-----------------------------------------------------------------|

e-----------------------------------------------------------------|
B----------------12-10--------------------------------------------|
G-------10s12-10--------------------------------------------------|
D-----------------------------------------------------------------|
A-----------------------------------------------------------------|
E-----------------------------------------------------------------|

e-----------------------------------------------------------------|
B-------10-12s16-14-12-------12-14s16-----------------------------|
G----------------------14-12--------------------------------------|
D-----------------------------------------------------------------|
A-----------------------------------------------------------------|
E-----------------------------------------------------------------|



Guitar 1 – medium fast

e|----------------------------------------------------------------|
A chord diagramBB|----------------------------------------------------------------|
A chord diagramG+G|----------------------------------------------------------------|
A chord diagramD MajorD|--7--7--7--7--7--7--7--9--9--9--9--9----------------------------|
A chord diagramA augmentedA|--7--7--7--7--7--7--7--9--9—-9--9—-9----------------------------|
A chord diagramE MajorE|--5--5--5--5--5--5--5--7--7--7--7--7----------------------------|

e|----------------------------------------------------------------|
A chord diagramBB|----------------------------------------------------------------|
A chord diagramG+G|----------------------------------------------------------------|
A chord diagramD MajorD|--7--7--7--7--7--7--7--9--9--9--9--9----------------------------| X4
A chord diagramA augmentedA|--5--5--5--5--5--5--5--7--7--7--7--7----------------------------|
A chord diagramE MajorE|----------------------------------------------------------------|


Guitar 1

e|------------------------------------------------------------------- |
A chord diagramBB|------------------------------------------------------------------- |
A chord diagramG+G|------------------------7--7--7--7--7---9--9--9--9--9-----------|-- |
A chord diagramD MajorD|---7--7--7--7--7--7--7--7--7--7--7--7---9--9--9--9--9-----------|-- |
A chord diagramA augmentedA|---7--7--7--7--7--7--7--5--5--5--5--5---7--7--7--7--7-----------|-- |
A chord diagramE MajorE|---5--5--5--5--5--5--5------------------------------------------|-- |
                                                                        X2
e|----------------------------------------------------------------|-- |
A chord diagramBB|----------------------------------------------------------------|-- |
A chord diagramG+G|----------------------7--7--7--7--7--9--9--9--9--9-7--7--7--7--7|-- |
A chord diagramD MajorD|-7--7--7--7--7--7--7--7--7--7--7--7--9--9--9--9--9-7--7--7--7--7|-- |
A chord diagramA augmentedA|-7--7--7--7--7--7--7--5--5--5--5--5--7--7--7--7--7-5--5--5--5--5|-- |
A chord diagramE MajorE|-5--5--5--5--5--5--5--------------------------------------------|-- |


Guitar 2 - They play this bit live but you can't here it very well on the recording.


e-------7s8-7-5-7-5-----------------------------------------------|
B------------------7--5-------------------------------------------|
G-----------------------------------------------------------------| x2
D-----------------------------------------------------------------|
A-----------------------------------------------------------------|
D-----------------------------------------------------------------|

This will be the 3rd  lyrics "walang ibang langhap sarap"


e-----7s8-7-------------------------------------------------------|
B-----------10--8--7----------------------------------------------|
G-----------------------------------------------------------------|
D-----------------------------------------------------------------|
A-----------------------------------------------------------------|
D-----------------------------------------------------------------|



(REPEAT LNG PO UNG VERSE and CHORUS)
(DI KO PA TAPOS UNG 2nd intro eh..)


"AT KAHIT CNU MAKASMA"

Bagsak lng po
e|----------------------------------------------------------------|
A chord diagramBB|----------------------------------------------------------------|
A chord diagramG+G|----------------------------------------------------------------|
A chord diagramD MajorD|--7--7--7--7--7--7--7--9--9--9--9--9----------------------------|
A chord diagramA augmentedA|--7--7--7--7--7--7--7--9--9—-9--9—-9----------------------------|
A chord diagramE MajorE|--5--5--5--5--5--5--5--7--7--7--7--7----------------------------|

e|----------------------------------------------------------------|
A chord diagramBB|----------------------------------------------------------------|
A chord diagramG+G|----------------------------------------------------------------|
A chord diagramD MajorD|--7--7--7--7--7--7--7--9--9--9--9--9----------------------------| x4
A chord diagramA augmentedA|--5--5--5--5--5--5--5--7--7--7--7--7----------------------------|
A chord diagramE MajorE|----------------------------------------------------------------|


(same chords acoustic lng po) X2

(DISCORTED N PO)
e|----------------------------------------------------------------|
A chord diagramBB|----------------------------------------------------------------|
A chord diagramG+G|------------------------7--7--7--7--7---9--9--9--9--9-----------|
A chord diagramD MajorD|---7--7--7--7--7--7--7--7--7--7--7--7---9--9--9--9--9-----------|
A chord diagramA augmentedA|---7--7--7--7--7--7--7--5--5--5--5--5---7--7--7--7--7-----------|
A chord diagramE MajorE|---5--5--5--5--5--5--5------------------------------------------|

e|----------------------------------------------------------------|
A chord diagramBB|----------------------------------------------------------------|
A chord diagramG+G|----------------------7--7--7--7--7--9--9--9--9--9-7--7--7--7--7|
A chord diagramD MajorD|-7--7--7--7--7--7--7--7--7--7--7--7--9--9--9--9--9-7--7--7--7--7|
A chord diagramA augmentedA|-7--7--7--7--7--7--7--5--5--5--5--5--7--7--7--7--7-5--5--5--5--5|
A chord diagramE MajorE|-5--5--5--5--5--5--5--------------------------------------------|
ULITIN LNG

LAST
"ITO ANG LANGHAP SARAP NG BURGER YUM"
e|----------------------------------------------------------------|
A chord diagramBB|----------------------------------------------------------------|
A chord diagramG+G|----------------------7--7--7--7--7--9--9--9--9--9-7--7--7--7--7|
A chord diagramD MajorD|-7--7--7--7--7--7--7--7--7--7--7--7--9--9--9--9--9-7--7--7--7--7|
A chord diagramA augmentedA|-7--7--7--7--7--7--7--5--5--5--5--5--7--7--7--7--7-5--5--5--5--5|
A chord diagramE MajorE|-5--5--5--5--5--5--5--------------------------------------------|


OUTRO:

e|-------------9b-2x--12------------------------------------------|
A chord diagramBB|----------------------12—10/------------------------------------|
A chord diagramG+G|----------------------------------------------------------------|
A chord diagramD MajorD|----------------------------------------------------------------|
A chord diagramA augmentedA|----------------------------------------------------------------|
A chord diagramE MajorE|----------------------------------------------------------------|

Other versions of Iisang Sarap

Iisang sarapChords
Iisang sarap ukuleleChords

Almost there ...

Sign in to get your own page with links to favourite songs and more. You are just one click away...

Login with Facebook Login with Google