Log in

One click and you are in

Login with Facebook Login with Google

Why sign up and log in

Guitar Tabs Explorer
Parokya Ni Edgar bass tabs for Halaga

Bass tabs

Intro:
E|------------------55555555—77777777----55555555---|
A|---55555555---------------------------------------|   2X
D|--------------------------------------------------|
G|--------------------------------------------------|
Verse 1:
E|--------------------------------------------12-----------9-9-----9------10-10---|
A|--------------------------12-12-12-12----9-9-----------9----10-10---------------|
D|---10~12-12-12-12^14------------------------------------------------------12----|    >>>4 X
G|--------------------------------------------------------------------------------l


Refrain 1:
E|33333333---------------55555555-3-55555555-33333333-----------------------------55555555----|
A|---------------55555555--------------------------------------55555555---22222222------------|
D|--------------------------------------------------------------------------------------------|
G|--------------------------------------------------------------------------------------------|


Verse 2:
E|--------------------------------------------12------9-9------9------10-10------|
A|--------------------------12-12-12-12----9-9------9-----10-10------------------|
D|---10~12-12-12-12^14------------------------------------------------------12---|     >>>4 X
G|-------------------------------------------------------------------------------l


Refrain 2:
E|33333333---------------55555555-3-55555555-33333333---------------------55555555-|
A|---------------55555555-----------------------------55555555---22222222----------|
D|---------------------------------------------------------------------------------|
G|---------------------------------------------------------------------------------|


Chorus:
E|--------------3333-----------------------------------|
A|-5555-------------------2222--------0-0-2-4-0-0-2-4--|
D|--------5-4---------5-4--------5-4-------------------| 4x
G|-----------------------------------------------------|

Interlude:
E|--------------3333------------------------------------------|
A|-5555------------------2222--------0-0-2-4-0-0-2-4----------|
D|--------5-4---------5-4--------5-4--------------------------|
G|------------------------------------------------------------|

Verse 3:
E|---------------------------------------------12------9-9-------9------10-10------|
A|--------------------------12-12-12-12----9-9-------9-----10-10-------------------|
D|---10~12-12-12-12^14---------------------------------------------------------12--|     >>>4 X
G|---------------------------------------------------------------------------------|


Refrain 3:
E|33333333---------------55555555-3-55555555-33333333--------------------55555555-|
A|---------------55555555-----------------------------55555555---22222222---------|
D|--------------------------------------------------------------------------------|
G|--------------------------------------------------------------------------------|


Verse 4:
SA PART NA (AYUKO NG ISIPIN PA)
E|-----------------------------------------------------------------------------------------|
A|------------------------------12-----------------------9---------------------------------|
D|-12-------------14-12------14----14-14-12-11----12--12---12-11-9--11-------14-14-12-11---| 4x
G|-----11—11-11--------------------------------------------------------14------------------|


Refrain 4:
E|33333333---------------55555555-3-55555555-33333333-------------------55555555-|
A|---------------55555555----------------------------55555555---22222222---------|
D|-------------------------------------------------------------------------------|
G|-------------------------------------------------------------------------------|


Chorus:
E|--------------3333----------------------------------|
A|-5555------------------2222--------0-0-2-4-0-0-2-4--| 4x
D|--------5-4---------5-4--------5-4------------------|
G|----------------------------------------------------|

Guitar solo:
E|--------------3333----------------------------------|
A|-5555------------------2222--------0-0-2-4-0-0-2-4--|
D|--------5-4---------5-4--------5-4------------------|2x
G|----------------------------------------------------|


Bridge:
E|---------5---5---------3---0-------5—5—3------5---|
A|-2---5----------2---0-------2---5-----------5—2---|
D|--------------------------------------------------|
G|--------------------------------------------------|


Chorus:
E|--------------3333------------------------------------|
A|-5555------------------2222--------0-0-2-4-0-0-2-4--0-|
D|--------5-4---------5-4--------5-4--------------------|
G|------------------------------------------------------|
**

Almost there ...

Sign in to get your own page with links to favourite songs and more. You are just one click away...

Login with Facebook Login with Google