Log in

One click and you are in

Login with Facebook Login with Google

Why sign up and log in

Guitar Tabs Explorer
Parokya Ni Edgar bass tabs for Gitara

Bass tabs with lyrics

Intro...
G|-------------------------------------------------------------|
D|-------------------------------------------------------------|
A|----------0-2--2-2--0-2-3--3-3--5h7p5--3/5-------------------|
E|-3--3-3-0----------------------------------------------------|

Repeat Intro 3x then do this (End Part of the Guitar Riff)

G|-------------------------------------------------------------|
D|-------------------------------------------------------------|
A|----------0-2--2-2--0-2-3--3-3--5h7p5-3-3h5p3----------------|
E|-3--3-3-0----------------------------------------------------|
Verse: (Same as Intro)

G|-------------------------------------------------------------|
D|-------------------------------------------------------------|
A|----------0-2--2-2--0-2-3--3-3--5h7p5--3/5-------------------|
E|-3--3-3-0----------------------------------------------------|

*Repeat Verse 4x then do this*

G|-------------------------------------------------------------|
D|-------------------------------------------------------------| Repeat until you hear
Guitar Riff Playing.
A|--------2-3-5--5-5h7p5-------5-------------------7-7h9p7-----|
E|-5----5----------------7-5-3--0-2-5-3-0-0---0-5/7-------9----|
               This Part is Kind'a Fast
               right above the word "THIS" until the
				end of the riff. Just follow the guitar
				 plucking and you
				 will get this part...


Verse 2 (Repeat Verse 1)

G|-------------------------------------------------------------|
D|-------------------------------------------------------------|
A|----------0-2--2-2--0-2-3--3-3--5h7p5--3/5-------------------|
E|-3--3-3-0----------------------------------------------------|

*Repeat Verse 4x then do this*

G|-------------------------------------------------------------|
D|-------------------------------------------------------------| Repeat until you hear
Guitar Riff Playing.
A|--------2-3-5--5-5h7p5-------5-------------------7-7h9p7-----|
E|-5----5----------------7-5-3--0-2-5-3-0-0---0-5/7-------9----|
               This Part is Kind'a Fast
               right above the word "THIS" until the
				end of the riff. Just follow the guitar
				 plucking and you
				 will get this part...

During The Riff (Maybe a Solo) just Do the Verse Pattern Again...

G|-------------------------------------------------------------|
D|-------------------------------------------------------------|
A|----------0-2--2-2--0-2-3--3-3--5h7p5--3/5-------------------|
E|-3--3-3-0----------------------------------------------------|

Repeat the Verse Pattern 2x then do this *again*

G|-------------------------------------------------------------|
D|-------------------------------------------------------------|
A|--------2-3-5--5-5h7p5-------5-------------------7-7h9p7-----|
E|-5----5----------------7-5-3--0-2-5-3-0-0---0-5/7-------9----|

G|-------------------------------------------------------------|
D|-------------------------------------------------------------|
A|--------2-3-5--5-5h7p5-------5-------------------7-7h9p7-----|
E|-5----5----------------7-5-3--0-2-5-3-0-0---0-5/7-------9----|

G|-------------------------------------------------------------|
D|-------------------------------------------------------------|
A|--------2-3-5--5-5h7p5-------5-------------------------------|
E|-5----5----------------7-5-3--0-2-5-3-0-Hold for a while-----|

Sabayan nyo ung words na "Idadaan Nalang, sa Gitara...."
 3rd Fret on A String: play when you hear the word IDADAAN nalang...
 5th Fret on A String: play when you hear the word LANG in "Idadaan NaLANG..."
G|-------------------------------|
D|-------------------------------|
A|---3---------------5-----------|
E|-------------------------------|
Let The 5th Fret here on Top fade while the Acoustic Guitar Solo is Going on..

-=Acoustic Guitar Solo/Part=- ...


After the Acoustic Guitar Solo/Part Do the Verse Pattern

G|-------------------------------------------------------------|
D|-------------------------------------------------------------|
A|----------0-2--2-2--0-2-3--3-3--5h7p5--3/5-------------------|
E|-3--3-3-0----------------------------------------------------|

G|-------------------------------------------------------------|
D|-------------------------------------------------------------|
A|----------0-2--2-2--0-2-3--3-3--5h7p5-3----3h5p3-------------|
E|-3--3-3-0----------------------------------------------3-----|


Ending Note: G (3rd Fret of E STRING) Hold until music stops

TIP: Diskartehan nyo nalang ung mga pedeng arte (Fill In) nyo dito sa kantang ito...
Sure ako na Tama to... ung time intervals nlng intindihin nyo ng maayos tska sabayan
nyo ung song para makuha nyo... may part na mabagal (ung part na before mag Solo ung
Acoustic Guitar) may part din na mabilis (ung bago mag Chorus, refrain ba un', o basta
un... Good nlng sa lahat tungkol d2...

:::::::::::::::::::::::::::::::::::::
:::::::::: p l a n t a e ™ ::::::::::
:::::::::::::::::::::::::::::::::::::

Almost there ...

Sign in to get your own page with links to favourite songs and more. You are just one click away...

Login with Facebook Login with Google