Log in

One click and you are in

Login with Facebook Login with Google

Why sign up and log in

Guitar Tabs Explorer
Parokya Ni Edgar tabs for Dont touch my birdie

Guitar tabs with lyrics

Dont Touch My Birdie By Parokya ni Edgar


Intro:
   A chord diagramA augmentedA                        A chord diagramA augmentedA
e |---------|             e |------0-|
A chord diagramBB |---2-3-5-|             A chord diagramBB |---2-3--|
A chord diagramG+G |---------|    or       A chord diagramG+G |--------|
A chord diagramD MajorD |--2------|             A chord diagramD MajorD |--2-----|
A chord diagramA augmentedA |-0-------|             A chord diagramA augmentedA |-0------|
A chord diagramE MajorE |---------|             A chord diagramE MajorE |--------|
   A chord diagramE MajorE         A chord diagramF# minorF#m           A chord diagramE MajorE            A chord diagramD MajorD          A chord diagramA augmentedA          A chord diagramE MajorE
e |---------|--------------|---4--4--4-|--2--2--2-|----------|--------------|-0-|
A chord diagramBB |---------|-----2h3p2----|----0--0---|---3--3---|--2--2--2-|-----2h3p2----|-0-|
A chord diagramG+G |---1-2-4-|----2-----2---|-----1--1--|----2--2--|---2--2---|----2-----2---|-1-|
A chord diagramD MajorD |--2------|---4-------4--|-----------|-0--------|----2--2--|---4-------4--|-2-|
A chord diagramA augmentedA |---------|--4---------4-|-----------|----------|-0--------|--4---------4-|-2-|
A chord diagramE MajorE |-0-------|-2------------|-0---------|----------|----------|-2------------|-0-|


Verse 1:

A chord diagramA augmentedA             A chord diagramE MajorE
Kapag ako'y nababato
A chord diagramF# minorF#m              A chord diagramE MajorE
Pinaglalaruan ko ang birdie ko
A chord diagramF# minorF#m           A chord diagramE MajorE
Ang cute cute naman kasi
A chord diagramD MajorD            A chord diagramE MajorE
Kaya ko siya binili


Verse 2:

A chord diagramA augmentedA               A chord diagramE MajorE
My birdie is my bestfriend
A chord diagramF# minorF#m             A chord diagramE MajorE
Ang dami naming maliligayang sandali
A chord diagramF# minorF#m                   A chord diagramE MajorE
Madalas ko siyang pinapakain ng birdseed
A chord diagramD MajorD                       A chord diagramE MajorE
Mahal kita o birdie ko, 'wag kang lalayo


Chorus:

A chord diagramA augmentedA              A chord diagramE MajorE
Don't touch my birdie
A chord diagramF# minorF#m       A chord diagramE MajorE
Resist temptation please
A chord diagramF# minorF#m               A chord diagramE MajorE
You don't have to grab my birdie
A chord diagramD MajorD             A chord diagramE MajorE
Just call it, and it will come


Solo: (Distortion)


|---------------------------|---------19b--17-16-17-16-----------------|
|-------14---15----17---17b-|--17--15-----------------17-17b-14-12-10--|
|--13/14--14----14---14-----|------------------------------------------|
|---------------------------|------------------------------------------|
|---------------------------|------------------------------------------|
|---------------------------|------------------------------------------|

|-------------------9-10-12p10---------------|--------------------------5-7-9-10-12--|
|-9/10/9-10-12p10p9------------12-10-9-------|--------------------7-5-7--------------|
|--------------------------------------11-9--|------------7-6-7-9--------------------|
|--------------------------------------------|--6/7/6-7-9----------------------------|
|--------------------------------------------|---------------------------------------|
|--------------------------------------------|---------------------------------------|


(thnx for the Solo Jooossshhh)


Verse 3:
A chord diagramA augmentedA                A chord diagramE MajorE
Ang birdie ko ay nakakatuwa
A chord diagramF# minorF#m          A chord diagramE MajorE
Parang cobra na mahilig manuka
A chord diagramF# minorF#m              A chord diagramE MajorE
Kapag nilabas na mula sa kulungan
A chord diagramD MajorD                   A chord diagramE MajorE
Tuloy-ttuloy na ang aming kasiyahan


Di naman ako madamot talaga
Ayaw ko lang na hinahawakan s'ya ng iba
Ang birdie ko ay medyo masungit
Konting hawak lang siguradong magagalit


CHORUS

INTERLUDE

It will come


Bridge:

A chord diagramF# minorF#m             A chord diagramE MajorE
Huwag ka sanang magalit sa akin
A chord diagramD MajorD                       A chord diagramA augmentedA
Tuwing ang birdie ko ay aking hihimasin
A chord diagramF# minorF#m              A chord diagramE MajorE
Sana'y maunawaan mo
A chord diagramD MajorD
Mahal na mahal ko ang birdie ko
A chord diagramA augmentedA
Pati mga itlog nito


CHORUS(2x)

CODA

It will come
It will come

Other versions of Don't Touch My Birdie

Don't touch my birdieChords

Almost there ...

Sign in to get your own page with links to favourite songs and more. You are just one click away...

Login with Facebook Login with Google