Log in

One click and you are in

Login with Facebook Login with Google

Why sign up and log in

Guitar Tabs Explorer
Parokya Ni Edgar tabs for Dont think

Guitar tabs

Note;

Tuning:half-step down
(Eb-Ab-Db-Gb-bb-eb)

🏷Legends
/=slide up
~=vibrato or let ring
b=bend
r=release to
Solo
01:29
|-----------------------------|
|--------------11-10----------|
|----12-10-12--------12-10----|
|-12--------------------------|
|-----------------------------|
|-----------------------------|

|----------------------------|
|-----------------------10---|
|-12b~~~-12-10-12b~~~--------|
|----------------------------|
|----------------------------|
|----------------------------|

|-------------------------------|
|-----------10-10h11-10---------|
|-12b-r-10---------------10-----|
|-------------------------------|
|-------------------------------|
|-------------------------------|

|----------------|
|----------------|
|----------------|
|-10/12-10-------|
|----------------|
|----------------|

|---------------------|
|---------------10----|
|----12-10-12---------|
|-12------------------|
|---------------------|
|---------------------|

|-12/15--12h13-13~~~-----|
|------------------------|
|------------------------|
|------------------------|
|------------------------|
|------------------------|

|--18/20--18~~-20/22-20-----|
|---------------------------|
|---------------------------|
|---------------------------|
|---------------------------|
|---------------------------|

|-18-20-18-17---------------|
|---------------18-18/20~---|
|---------------------------|
|---------------------------|
|---------------------------|
|---------------------------|

|------------------------|
|-15/17--17/18--18~~~----|
|------------------------|
|------------------------|
|------------------------|
|------------------------|

|-----------------------|
|-----------------------|
|-15/17--17-17--15------|
|-----------------------|
|-----------------------|
|-----------------------|

|------------------------|
|------------------------|
|-15-15-15-14-14-15------|
|------------------------|
|------------------------|
|------------------------|

|--------------------------|
|-13h15-13-----13----------|

|--------------------------|
|--------------------------|
|-12---------------12~~----|
|----14-12-10h12-----------|
|--------------------------|
|--------------------------|
|

 UPDATING

Other versions of Don't Think

Don't thinkChords

Almost there ...

Sign in to get your own page with links to favourite songs and more. You are just one click away...

Login with Facebook Login with Google