Log in

One click and you are in

Login with Facebook Login with Google

Why sign up and log in

Guitar Tabs Explorer
Parokya Ni Edgar tabs for Akala

Guitar tabs

🏷Legend
/  = slide
br = bend release
h   = hammer on
~ = vibrato
x = dead string

Chords
verse and chorus
E-B - A chord diagramC# minorC#m - A chord diagramA augmentedA - A chord diagramBB


refrain 1
A chord diagramA augmentedA - A chord diagramBB - E-B - A chord diagramC# minorC#m - A chord diagramA augmentedA - A chord diagramA minorAm


Refrain 2.,
A chord diagramA augmentedA - A chord diagramBB - E-B - A chord diagramC# minorC#m
A chord diagramA augmentedA - A chord diagramBB - E-B - A chord diagramC# minorC#m - A chord diagramA augmentedA - A chord diagramA minorAm

tab;

pasensya na wala ung mga lead sa verse.,hinde kasi ako ganu sigurado kaya hinde ko
na isinama,hehe,

refain 2

"kung deh ko sinubukan.......

|---------------------|
|---------------------|
|-6~-69--9--8--9-----|
|-x--x-x--x--x--x-----|
|-4~-47--7--6--7-----|
|---------------------|

|----------------------------|
|----------------------------|
|-13-13-11-11-1314-14~------|
|-x---x--x--x--x--x--x-------|
|-11-11-9--9--1112-12~------|
|----------------------------|

|----------------|
|----------------|
|-14/9~~~~~------|
|-x--x-----------|
|-127~~~~~------|
|----------------|

,chorus repeat 2x,

"dahil lumilipas ang oras.......

|---------------------|
|---------------------|
|-89--11-11--9-------|
|-x-x--x--x---x-------|
|-67--9--9---7-------|
|---------------------|

guitar solo,

|----------------------|
|----------------------|
|----------------------|
|-13/14-14-13----------|
|---------------14-----|
|----------------------|

|---------------------12-|
|--------------12-14-----|
|-------11-13------------|
|-13/14------------------|
|------------------------|
|------------------------|

|----14----16-----|
|-16----17--------|
|-----------------|
|-----------------|
|-----------------|
|-----------------|

|---17----16----14-----12----|
|-14---14----14-----14-------|
|----------------------------|
|----------------------------|
|----------------------------|
|----------------------------|


|--------------------|
|-14br--12-----------|
|------------13//----|
|--------------------|
|--------------------|
|--------------------|


|----------------|
|----------------|
|-\9-8----------|
|--------9~~-----|
|----------------|
|----------------|

(legato dito..,)
|----------------------------|
|----------------------------|
|----------------------------|
|----------------11h13h14----|
|-------11h12h14-------------|
|-12h14----------------------|


|----------------------------|
|----------------------------|
|----------------11h13h14----|
|-------11h13h14-------------|
|-12h14----------------------|
|----------------------------|

|--------11-12-1214-14br----|
|-12-14----------------------|
|----------------------------|
|----------------------------|
|----------------------------|
|----------------------------|


|-11-12-14--12h14-12-11------|
|----------------------------|
|----------------------------|
|----------------------------|
|----------------------------|
|----------------------------|

|-12-14------|
|--------12--|
|------------|
|------------|
|------------|
|------------|

|-------12----11----12-----|
|12h14----14----14---------|
|--------------------------|
|--------------------------|
|--------------------------|
|--------------------------|

|------14-16--12~~-----|
|--14------------------|
|----------------------|
|----------------------|
|----------------------|
|----------------------|

Other versions of Akala

AkalaChords
Akala mo yataChords
Akala mo yata ukuleleChords
Akala ukuleleChords

Almost there ...

Sign in to get your own page with links to favourite songs and more. You are just one click away...

Login with Facebook Login with Google