Log in

One click and you are in

Login with Facebook Login with Google

Why sign up and log in

Guitar Tabs Explorer
Parokya Ni Edgar bass tabs for Akala

Bass tabs

Verse2
G|-----------------------------------------|
D|-----------------------------------------|
A|-7-7-------4-4--4-4----------------------|
E|------7-7------------5-5--5-5---7-7--7-7-|
Refrain
G|----------------------------------------------------------|
D|----------------------------------------------------------|
A|---------------------6-7--7-7------4--4-4--4--------------|
E|-5--5-5--5-7--7-7--7-----------7-7-----------5--/5--5--5\-|


Chorus
G|----------------------------------------------------------------|
D|----------------------------------------------------------------|
A|-7-7--7----------4-4--4--4-4--4---------------------------------|
E|---------7-7--7------------------5-5--5--5-5--5--7-7--7--7-7--7-|

G|----------------------------------------------------------------|
D|----------------------------------------------------------------|
A|-7-7--7----------4-4--4--4-4--4---------------------------------|
E|---------7-7--7------------------5--5-5--5-5--5--7-7--7--7-7--7-|


Verse3
G|-------------------------------------------------------------------|
D|-------------------------------------------------------------------|
A|-7-7--7-----------4-4--4--4-4--4-----------------------------------|
E|---------7-7--7-------------------5-5--5--5-5--5---7-7--7---7-7--7-|3x

Refrain2
G|--------------------------------------------------------------------|
D|--------------------------------------------------------------------|
A|---------------------6-7--7-7-----4--4-4--4--4--------------------4-|
E|-5--5-5--5-7--7-7--7----------7-7-------------5--5-5--5-7--7-7--7---|

G|------------------------------|
D|------------------------------|
A|-4-4--4-7--7-7--7-------------|
E|-----------------5--/5--5--5\-|

Repeat chorus 2x


Outro
G|---------------------------------------------------------------|
D|---------------------------------------------------------------|
A|-7-7--7----------4-4--4--4-4--4--------------------------------|
E|---------7-7--7-----------------5-5--5--5-5--5--7-7--7--7-7--7-|

G|-----------------------------------------------|
D|-----------------------------------------------|
A|-7-7--7----------4-4--4--4-4--4----------4-6-7-|
E|---------7-7--7-----------------5--5h7-5-------|

Almost there ...

Sign in to get your own page with links to favourite songs and more. You are just one click away...

Login with Facebook Login with Google