Log in

One click and you are in

Login with Facebook Login with Google

Why sign up and log in

Guitar Tabs Explorer
The Parlotones bass tabs for Brighter side of hell

Brighter Side Of Hell bass tab - The Parlotones

The Parlotones bass tabs for Brighter side of hell

Bass tabs

-----------------------------------------------------------------------------
         Brighter Side Of Hell - The Parlotones
-----------------------------------------------------------------------------

Tabbed By :Frankie001
e-mail: v_dalis@hotmail.com
Wasup guys, im pretty sure this tab is right, but if you got any corrections, e-
mail me with them. Enjoy...

Tuning: Standard
Intro:
Bass comes in at 0:27
G|--------------------------------------------------------------------------|
D|--------------------------------------------------------------------------|
A|7-5--5---7-5--straight to verse-------------------------------------------|
E|--------------------------------------------------------------------------|


Verse:
G|--------------------------------------------------------------------------|
D|-------02-2-2-22-------24-4-4-40--x2-------2~-----------------------------|
A|2-2-2-2---------0-0-0-0--------------2~-----------------------------------|
E|--------------------------------------------------------------------------|


Pre-chorus:
G|--------------------------------------------------------------------------|
D|--------------------------------------------------------------------------|
A|----------------4-4-4-4-5-5-5-5----x4-------------------------------------|
E|5-5-5-5-3-3-3-3-----------------------------------------------------------|

G|--------------------------------------------------------------------------|
D|--------------------------------------------------------------------------|
A|7-7-7-5-5-5-4-4-5-5-5-5-5-5-5-5-7-7-7-5-5-5-4-4---------------------------|
E|--------------------------------------------------------------------------|

Chorus:
G|--------------------------------------------------------------------------|
D|--------22222222--------44444444--x7----------22222222--------------------|
A|22222222--------00000000--------------22222222----------------------------|
E|--------------------------------------------------------------------------|

G|--------------------------------------------------------------------------|
D|444-444-44-222-222-22-444-444-44------------444-444-44-222-222-22---------|
A|---------------------------------222-222-22-------------------------------|
E|--------------------------------------------------------------------------|

G|--------------------------------------------------------------------------|
D|-----------2~~~-----------------------------------------------------------|
A|222-222-22----------------------------------------------------------------|
E|--------------------------------------------------------------------------|


Outro:
G|--------------------------------------------------------------------------|
D|--------22222222--------44444444------------------------------------------|
A|22222222--------00000000----------x3--------------------------------------|
E|--------------------------------------------------------------------------|

G|--------------------------------------------------------------------------|
D|----2~----0~--------------------------------------------------------------|
A|-2~----2~----2~-0~--------------------------------------------------------|
E|--------------------------------------------------------------------------|

| ~ let ring

Almost there ...

Sign in to get your own page with links to favourite songs and more. You are just one click away...

Login with Facebook Login with Google