Log in

One click and you are in

Login with Facebook Login with Google

Why sign up and log in

Guitar Tabs Explorer
Parkway Drive bass tabs for Feed them to the pigs

Feed Them To The Pigs bass tab - Parkway Drive

Parkway Drive bass tabs for Feed them to the pigs

Bass tabs with lyrics

Feed Them To The Pigs
Parkway Drive
Horizons (Track 3)

Bass Tab - B, F#, B, E (Drop B, lowest to highest)

Tabbed by: Tuckley

Hey people who are either kind enough to view this tab or just bored outta your fuckin skull.
I decided I'd put up another Parkway Drive bass tab, and there was none for this song so
I thought, fuck it.
I am trying to ear out more bass tabs, maybe some actual metal bands, because I'm way
more into metal than hardcore.
It's just fortunate that Parkway have a metal sound to them.
Any constructive criticism is greatly appreciated, the email's there.
To clarify I do play 3 finger bass, I can play with a pick, I just choose not to.
And this is how I play it, however you play is up to you.

Intro
E |------------------------|
B |------------------------|
F#|------------------------|
B |0/12\0------------------|


Verse I x3
"This is life! This is lifeless! Is there consequence? This apathy is murderous! Hope is
dead, buried by regret!"
E |-------------------------------------------------------|
B |-------------------------------------------------------|
F#|7/8\7-5---------------7/8\7-5--------------------------|
B |-----0--0-000-0-000-0------0--000-8v~~-5v~~-10v~~-7v~~-|

"Alive for nothing, and dying!"
E |----------------------------------|
B |----------------------------------| Verse Ending
F#|7/8\7-5---------------7/8\7-5-----|
B |-----0--0-000-0-000-0------0--000-|

Build Up, Pt I x2
"For even less! Is this the path we've chosen "
E |--------------------------------------------|
B |--------------------------------------------|
F#|--------------------------------------------|
B |8v~~-5v~~-10v~~-7v~~-12v~~-8v~~-14v~~-10v~~-|

Build Up, Pt II
E |----------------------------------------|
B |----------------------------------------|
F#|----------------------------------------|
B |5h8-5h8-7h10-7h10-8h12-8h12-10h14-10h14-|

Build Up, Pt III
"Our minds, and our future, left to rot!"
E |----------------------------------------|
B |----------------------------------------|
F#|----------------------------------------|
B |5-8-5-8-7-10-7-10-8-12-8-12-10-14-14\\0-|

Breakdown I, Pt I x3
"These lives are worth nothing! Our lives worth nothing! FUCK!"
E |--------------------------------------------------|
B |--------------------------------------------------|
F#|--------------------------------------------------|
B |0~~-0-00-00-0~~-00-00-00-0~~-0-00-00-7-3-2-5-3-2--|

Pt II
"YEEAAAHH! As we watch our dreams, burn into DUST! Into dust!"
E |------------------------------------------------------------------|
B |------------------------------------------------------------------|
F#|-----------------------------------------------------7~~~~--------|
B |0~~-0-00-00-0*-00-00-00*-0-00-00-7-3-2-5-3-2-0~~~~~--0~~~~-0/12\0-|

Bridge, Pt I
"On these cold sheets, beneath this hollow corpse of a life"
E |----------------------------------------|
B |-----------------------5----------------|
F#|--5-5-8-8-7-7-3v~--5-5---8-7-7h8p7-3v~~-|
B |00-0-0-0-0-0-0---00-0-0-0-0-0-----0-----|

Pt I Continued
"Their world casts shadows, and its eating us alive!"
E |---------------------------------------|
B |-----------------------7-5-------------|
F#|--5-5-8-8-7-7-3v~--5-5-----8-7h8h10v~~-|
B |00-0-0-0-0-0-0---00-0-0-0-0-0----------|


Bridge Pt II x2
"We are the working dead, haunted by the ghost of unanswered dreams"
"We are the flesh and the blood of a lost generation"
E |-----------------------------------------------|
B |---------------------------8-7-----------------|
F#|--8-8-12-12-10-10-7v~--8-8-----10-8h10p8-7v~~--|
B |00-0-0--0--0--0--0---00-0-0-0-0--0------0------|


Verse II, Pt I
"The deceased and forgotten, the voiceless"
E |------------------------------------|
B |------------------------------------|
F#|------------------------------------|
B |0-0*---0-0*---8v~~-5v~~-10v~~-7v~~--|

"And consumed! We're buried and broken, and we're rising against"
E |-------------|
B |-------------|
F#|-------------|
B |0-0*---0-0*--|

"YOU!"
E |------------------------|
B |------------------------|
F#|------------------------|
B |0/12\0------------------|


Verse II, Pt II x2
E |-------------------------------------------------------|
B |-------------------------------------------------------|
F#|7/8\7-5---------------7/8\7-5--------------------------|
B |-----0--0-000-0-000-0------0--000-8v~~-5v~~-10v~~-7v~~-|


Verse III, Pt I
"So this is life <This is life> Are we so worthless "
E |-----------------------------------------------------------|
B |-----------------------------------------------------------|
F#|10/12\10-8--------------10/12\10-8-------------------------|
B |--------0-0-000-0-000-0---------0-000-8v~~-5v~~-10v~~-7v~~-|

"We've clawed our way back, they can't destroy this!"
E |--------------------------------------|
B |--------------------------------------|
F#|10/12\10-8--------------10/12\10-8----| Verse Ending
B |--------0-0-000-0-000-0---------0-000-|

Build Up II, Pt I
"Because we have nothing left to lose"
E |--------------------------------------------|
B |--------------------------------------------|
F#|--------------------------------------------|
B |8v~~-5v~~-10v~~-7v~~-12v~~-8v~~-14v~~-10v~~-|

Pt II x2
"These hate-fuelled hearts keep burning! We push against"
E |----------------------------------------|
B |----------------------------------------|
F#|----------------------------------------|
B |5h8-5h8-7h10-7h10-8h12-8h12-10h14-10h14-|

Pt III
"The grain, and we won't turn back!"
E |----------------------------------------|
B |----------------------------------------|
F#|----------------------------------------|
B |5-8-5-8-7-10-7-10-8-12-8-12-10-14-14\\0-|

Breakdown II, Pt I
E |------------------------|
B |------------------------|
F#|------------------------|
B |0~~~~~~~~~~~~~~~~~~~~~~~|

Pt I Continued
"Armed to the teeth, born from the shadows"
E |--------------------|
B |--------------------|
F#|--------------------|
B |7-3-2-5-3-2-0~~~~-0*|

Pt II x2
"Burning for revenge! Revenge!"
E |-----------------------------------------------|
B |-----------------------------------------------|
F#|-----------------------------------------------|
B |7-3-2-5-3-2-0~~~~-0-00-00-0*-00-00-00*-0-00-00-|

"We're burning for revenge!"
E |---------------------|
B |---------------------|
F#|---------------------|
B |7-3-2-5-3-2-0~~~~-0*-|

So there you have it motherfuckers. \m/

v = vibrato
~ = let ring
h = hammer-on
p = pull-off
* = stop string
/ = slide up

Almost there ...

Sign in to get your own page with links to favourite songs and more. You are just one click away...

Login with Facebook Login with Google