Log in

One click and you are in

Login with Facebook Login with Google

Why sign up and log in

Guitar Tabs Explorer
Parcels bass tabs for Closetowhy

Bass tabs

Tuning: Standard (E A D G)


Intro:
G|------------------14-11-----------------------------13------------------------------|
D|--------------------------11------------------------------14-11---------------------|
A|---12-12-12----------------12-12--14-11-11-11---------------12-12-------------------|
E|------------------------------------------------------------------------------------|
G|-----------------------------------------------------------------------------------|
D|----------------------16-------------------------------------14-11-----------------|
A|-------------------------16--------------------------------------------11----------|
E|--12/14--14-14-----------17-14-14-----16\12--12-12------------12-12----------------|

G|------------------------------------------------------------------------------------|
D|---------------7-4------------------------6-----------------------------------------|
A|-------------------4------------------------6---7-7---------------------------------|
E|---5--5-5-----------5-5---7--4-4-4---------7----------------------------------------| x2

G|-------------------------------------------------------------------------------|
D|------------7-4-------------------------6--------------------------------------|
A|-----------------4-------------------------6---7-7-----------------------------|
E|--5-5-5-----------5-5---7--4-4-4---------7-------------------------------------|


Verse:
G|------------------------------------------------------------------------------|
D|------------7-4-------------------------6-------------------------------------|
A|-----------------4-------------------------6---7-7----------------------------|
E|--5-5-5-----------5-5---7--4-4-4---------7------------------------------------| x2


Pre-Chorus:
G|------------------------------------------------------|
D|------------------------------------------------------|
A|--14~-12~-11~----------12~-11~------------------14~\--|
E|-------------------14~---------------14~-12~\7~/------|


Chorus:
G|------------------------------------------------------------------------------------------------|
D|------------------------------------------------------------------------------14-------------9--|
A|-----------------------------------------------------------------------11/12-----12\------------|
E|--5--5--5~---5-5-----5--7\--2--2--2---2-2-----2--4--5--5--5~-------------------5/7----7\2-------|

G|----------------------------------------------------------------------------------------------4~------|
D|---------------------------------------------------------------------4~--4/6-4---------4~-------------|
A|-------------------------------------------------------------------3-------------4\2~-------------2~--|
E|--2--2--2--2-2-----2--4-7--7--7~--7-7---7-9\---2--2--2--2---------------------------------------------|


Verse:
G|------------------------------------------------------------------------------|
D|------------7-4-------------------------6-------------------------------------|
A|-----------------4-------------------------6---7-7----------------------------|
E|--5-5-5-----------5-5---7--4-4-4---------7------------------------------------| x4


Pre-Chorus:
G|------------------------------------------------------------------------------------------------------|
D|------------------------------------------------------------------------------------------------------|
A|--14~-12~-11~----------12~-11~------------------14~\--------------------------------------------------|
E|-------------------14~---------------14~-12~\7~/------------------------------------------------------|


Chorus:
G|------------------------------------------------------------------------------------------------------|
D|------------------------------------------------------------------------------14-------------9--------|
A|-----------------------------------------------------------------------11/12-----12\------------------|
E|--5--5--5~---5-5-----5--7\--2--2--2---2-2-----2--4--5--5--5~-------------------5/7----7\2-------------|

G|----------------------------------------------------------------------------------------------4~------|
D|---------------------------------------------------------------------4~--4/6-4---------4~-------------|
A|-------------------------------------------------------------------3-------------4\2~-------------2~--|
E|--2--2--2--2-2-----2--4-7--7--7---7-7---7-9\---2--2--2---2--------------------------------------------|

Idk just jammin:
G|------------------------------------------------------------------------------------------------------|
D|------------------------------------------------------------------------------------------------------|
A|------------------------------------------------------------------------------------------------------|
E|--5-5-5-X-5---5-X-5---5-5-5-X-5---7-X-7--2-2-2-X-2---2-X-2---2-2-2-X-2---4-X-4------------------------| x3

G|------------------------------------------------------------------------------------------------------|
D|--------------------------------14----------9---------------------------------------------------------|
A|-------------------------11/12----12\-----------------------------------------------------------------|
E|--5-5-5-X-5---5-X-5-----------------5/7----7\2--2-2-X-2--2-X-2---2-2-2-X-2---4-X-4--------------------|

G|------------------------------------------------------------------------------------------------------|
D|------------------------------------------------------------------------------------------------------|
A|------------------------------------------------------------------------------------------------------|
E|--5-5-5-X-5---5-X-5---5-5-5-X-5---7-X-7--2-2-2-X-2---2-X-2---2-2-2-X-2---4-X-4------------------------|

G|------------------------------------------------------------------------------------------------------|
D|--------------------------------14----------9---------------------------------------------------------|
A|-------------------------11/12----12\-----------------------------------------------------------------|
E|--5-5-5-X-5---5-X-5-----------------5/7----7\2--2-2-X-2--2-X-2---2-2-2-X-2---4-X-4--------------------|


************************************

| / Slide up
| \ Slide down
| ~ Let ring

************************************

Almost there ...

Sign in to get your own page with links to favourite songs and more. You are just one click away...

Login with Facebook Login with Google