Log in

One click and you are in

Login with Facebook Login with Google

Why sign up and log in

Guitar Tabs Explorer
Paramore bass tabs for Rose-colored boy

Bass tabs

Intro:
0:00
G|-----------------------------------------------------------------------------|
D|---------------3-3---------------------------------7---------------3---------|
A|---------------------------------3-3--5--5--5--3-5----3--3--3----3-----------|
E|--1--1--1--1-1------1--1--1--1-1-------------------------------5-------------|

G|-----------------------------------------------------------------------------|
D|---------------3-3----------------------------------3p2----------------------|
A|----------------------------------3-3--5--5--5--3-5------3--3--3----3--------|
E|--1--1--1--1-1------1--1--1--1-1/---------------------------------5---5-5----|
Verse:
0:17
"Rose-colored boy..."
G|-----------------------------------------------------------------------------|
D|---------------------------------------------------7---------------3---------|
A|---------------------------------3-3--5--5--5--3-5----3--3--3----3-----------|
E|--1--1--1--1-1------1--1--1--1-1-------------------------------5-------------|

G|-----------------------------------------------------------------------------|
D|---------------3-3---------------------------------7---------------3---------|
A|---------------------------------3-3--5--5--5--3-5----3--3--3----3-----------|
E|--1--1--1--1-1------1--1--1--1-1-------------------------------5-------------|


Pre-Chorus:
0:34
"...ooh..."
G|-------------------------------------------------------------------x-x-x-x---|
D|-----------------------------------------------------------------------------|
A|--1--1--1--1-1------3--3--3--3-3------5--5--5--5-5-3h5--3--3--3--3-----------|
E|---------------3-3-----------------------------------------------------------|

G|-----------------------------------------------------------------------------|
D|------------------------------5---5------------------------------------------|
A|--1--1--1--1-1------3--3--3-3---3-----5--5--5--5-5-3h5--3--3--3--3-5-7-8-----|
E|---------------3-3-----------------------------------------------------------|

Chorus:
0:55
"...cry a little bit..."
G|-----------------------------------------------------------------------------|
D|-----------------------------------------------------------------------------|
A|-----------------------------------------------------------------------------|
E|--1--1--5-x-5-x-5-6-6--6-x-6-x-6-1--1--5-x-5-x-5-6-6--8-x-8-x-8--------------|

G|-----------------------------------------------------------------------------|
D|---------------------------------------------------------10------------------|
A|--------10-8---------------------------10-8-----------10---------------------|
E|--6--6-------10-8--8--8-x-8-x-8--6--6-------10-8-8--8------------------------|


Bridge:
1:11
"...boy-oy..."
G|-----------------------------------------------------------------------------------|
D|---------------3-3---------------------------------7-------------------------------|
A|---------------------------------3----5--5--5--3-5----3--3--3-/-15-15-15-15-15-\---|
E|--1--1--1--1-1------1--1--1--1-1---------------------------------------------------|


Verse:
1:19
"Rose-colored boy..."
G|-----------------------------------------------------------------------------|
D|----------------------------------------------------------------3------------|
A|---------------------------------3----5--5--5----3h5-3--3--3-----------------|
E|--1--1--1--1-1------1--1--1--1-1---------------------------------------------|

G|-----------------------------------------------------------------------------|
D|---------------3-3-----------------3-----------------------------------------|
A|-------------------------------3h5----5--5--5--3-5-7-3--3--3--3-3------------|
E|--1--1--1--1-1------1--1--1--1------------------------------------1----------|


[Pre-Chorus}
1:44
"...off..."
G|-----------------------------------------------------------------------------|
D|------------------------------5---5------------------------------------------|
A|--1--1--1--1-1------3--3--3-3---3-----5--5--5--5-5-3h5--3--3-----3-5-7-8-----|
E|---------------3-3-----------------------------------------------------------|


Chorus:
"...let me..."
G|-----------------------------------------------------------------------------|
D|-----------------------------------------------------------------------------|
A|--------8\\\-----------------------------------------------------------------|
E|-----------------------------------------------------------------------------|

1:55
"...cry a little bit..."
G|-----------------------------------------------------------------------------|
D|-----------------------------------------------------------------------------|
A|-----------------------------------------------------------------------------|
E|--1--1--5-x-5-x-5-6-6--6-x-6-x-6-1--1--5-x-5-x-5-6-6--8-x-8-x-8--------------|

G|-----------------------------------------------------------------------------|
D|-----------------------------------------------------------------------------|
A|--------10-8---------------------------10-8---------/-15-15-15-15-15-\-------|
E|--6--6-------10-8--8--8-x-8-x-8--6--6-------10-8-8---------------------------|


Bridge:
2:15
"Hmmhm..."
G|-----------------------------------------------------------------------------|
D|--------------------------------10-------------------------------------------|
A|--13-13-13-13-13h15-15---8-8-10------10\\------------------------------------|
E|-----------------------------------------------------------------------------|

2:20
G|-----------------------------------------------------------------------------|
D|-----------------------------------------------------------------------------|
A|--1--1--1--1/5----------------3--3--3--3--5-3--3-3---------------------------|
E|---------------6--6-6-\-1--1-----------------------1-1-----------------------|

G|-----------------------------------------------------------------------------|
D|-----------------------------------------------------------------------------|
A|--1--1--1--1/5----------------3--3--3--3--5-3--3-3--3-5-7-8------------------|
E|---------------6--6-6-\-1--1-------------------------------------------------|


Chorus:
2:39
"...cry a little bit..."
G|-----------------------------------------------------------------------------|
D|-----------------------------------------------------------------------------|
A|-----------------------------------------------------------------------------|
E|--1--1--5-x-5-x-5-6-6--6-x-6-x-6-1--1--5-x-5-x-5-6-6--8-x-8-x-8--------------|

G|-----------------------------------------------------------------------------|
D|-----------------------------------------------------------------------------|
A|--------10-8---------------------------10-8----------------------------------|
E|--6--6-------10-8--8--8-x-8-x-8--6--6-------10-8-8--8--8--8--8---------------|

G|-----------------------------------------------------------------------------|
D|-----------------------------------------------------------------------------|
A|-----------------------------------------------------------------------------|
E|--1--1--8-x-8-x-8-6-6--6-x-6-x-6-1--1--5-x-5-x-5-6-6--8-x-8-x-8--------------|

G|-----------------------------------------------------------------------------|
D|-----------------------------------------------------------------------------|
A|--------10-8---------------------------10-8---------/-15-15-15-15-15-\-------|
E|--6--6-------10-8--8--8-x-8-x-8--6--6-------10-8-8---------------------------|


Outro:
3:12
"...boy-oy..."
G|-----------------------------------------------------------------------------|
D|---------------3-3---------------------------------7-------------5-----------|
A|---------------------------------3-3--5--5--5--3-5----3--3--3--3---3---------|
E|--1--1--1--1-1------1--1--1--1-1---------------------------------------------|

G|-----------------------------------------------------------------------------|
D|---------------3-3---------------------------------7p5-----------------------|
A|---------------------------------3-3--5--5--5--5-5-----3--3--3--3------------|
E|--1--1--1--1-1------1--1--1--1-1----------------------------------3-1--------|

Almost there ...

Sign in to get your own page with links to favourite songs and more. You are just one click away...

Login with Facebook Login with Google