Log in

One click and you are in

Login with Facebook Login with Google

Why sign up and log in

Guitar Tabs Explorer
Paramore bass tabs for Riot album

Bass tabs with lyrics

Riot!

 1.For a Pessimist I'm Pretty Optimistic(Unregistered)
 2.Thats What You Get(iheart_a7x)
 3.Hallelujah(thunderscreem)
 4.Misery Business(iheart_a7x)
 5.When It Rains(iheart_a7x)
 6.Let the Flames Begin(iheart_a7x)
 7.Miracle(iheart_a7x)
 8.Crushcrushcrush(Unregistered)
 9.We Are Broken(dvanwyk)
 10.Fences(iheart_a7x)
 11.Born for This(iheart_a7x)

 1.For a Pessimist I'm Pretty Optimistic(Unregistered)

 Intro x2
G|---------------------------------------------------------|
D|---------------------------------------------------------|
A|-14(x3)--12(x4)--9(x3)--8(x4)--14(x3)-12(x4)--16(x8)-----|
D|---------------------------------------------------------|
 Verse
G|-------------------------------------------------------------------------|
D|-------------------------------------------------------------------------|
A|---22222222-22222222----22222222-22222222---------------------------4-4--|
D|4~-------------------4~------------------44-444-44-6-66-666-666-1-1------|
 Pre-Chorus x2
G|-------------------------------------------------------------------------|
D|-------------------------------------------------------------------------|
A|---6(As nessecary)-------------------------------------------------------|
D|-------------------------------------------------------------------------|
 Chorus
G|-----------------------------------------------------------------|
D|-----------------------------------------------------------------|
A|-22222222-444444444-66666666--22222222-44444444------------------|
D|------------------------------------------------66666666---------|
 Chorus (continued)
G|-----------------------------------------------------------------------|
D|-----------------------------------------------------------------------|
A|---22222222-444444444-66666666--22222222-44444444-------4444444444-----|
D|--------------------------------------------------4444-----------------|

Pre-Verse
G|---------------------------------------------------------|
D|---------------------------------------------------------|
A|-14(x3)--12(x4)--9(x3)--8(x4)--14(x3)-12(x4)--16(x8)-----|
D|---------------------------------------------------------|

 Verse
G|-------------------------------------------------------------------------|
D|-------------------------------------------------------------------------|
A|---22222222-22222222----22222222-22222222---------------------------4-4--|
D|4~-------------------4~------------------44-444-44-6-66-666-666-1-1------|

Pre-Chorus x2
G|-------------------------------------------------------------------------|
D|-------------------------------------------------------------------------|
A|---6(As nessecary)-------------------------------------------------------|
D|-------------------------------------------------------------------------|


Chorus
G|-----------------------------------------------------------------|
D|-----------------------------------------------------------------|
A|-22222222-444444444-66666666--22222222-44444444------------------|
D|------------------------------------------------66666666---------|
 Chorus (continued)
G|-----------------------------------------------------------------------|
D|-----------------------------------------------------------------------|
A|---22222222-444444444-66666666--22222222-44444444-------4444444444-----|
D|--------------------------------------------------4444-----------------|

Pre-Verse
G|---------------------------------------------------------|
D|---------------------------------------------------------|
A|-14(x3)--12(x4)--9(x3)--8(x4)--14(x3)-12(x4)--16(x8)-----|
D|---------------------------------------------------------|


Bridge
G|-----------------------------------------------------|
D|-----------------------------------------------------|
A|-----------------------------------------------------|
D|-1111111-3333-4444-9999-8888-6666-3333---------------|

G|-----------------------------------------------------|
D|-----------------------------------------------------|
A|-----------------------------------------------------|
D|--1111-3333-4444-6666-9999-8888-6666-4444--3333------|


Chorus
G|-----------------------------------------------------------------|
D|-----------------------------------------------------------------|
A|-22222222-444444444-66666666--22222222-44444444------------------|
D|------------------------------------------------66666666---------|
 Chorus (continued)
G|-----------------------------------------------------------------------|
D|-----------------------------------------------------------------------|
A|---22222222-444444444-66666666--22222222-44444444-------4444444444-----|
D|--------------------------------------------------4444-----------------|


Chorus
G|-----------------------------------------------------------------|
D|-----------------------------------------------------------------|
A|-22222222-444444444-66666666--22222222-44444444------------------|
D|------------------------------------------------66666666---------|
 Chorus (continued)
G|-----------------------------------------------------------------------|
D|-----------------------------------------------------------------------|
A|---22222222-444444444-66666666--22222222-44444444-------4444444444-----|
D|--------------------------------------------------4444-----------------|


 2.Thats What You Get(iheart_a7x)

 Intro
G|-------------------------|
D|-------------------------|
A|-------------------------|
E|5-5-5-5-5-5-7-7-7-9-9-94-|x2


Verse
G|--------------------------------------------------------|
D|--------------------------------------------------------|
A|--------------------------------------------------------|
E|5-5-5--5-5-5--7-7-7-9-9-9--5-5-5-5-5-5-7-7-7-9-9-9-12\--|


Intro x2


Verse
G|---------------------------------------------------------|
D|---------------------------------------------------------|
A|---------------------------------------------------------|
E|5-5-5--5-5-5--7-7-7-9-9-9--5-5-5--5-5-5--7-7-7--9-9-9--0~|


Chorus "That's what you get when you let your heart win.."
G|---------------------------------------------------------------------------------|
D|---------------------------------------------------------------------------------|
A|-------------------------------------------6-------------------------------------|
E|55555555-00000000-99999999-777777777777-79---9-5555555-00000000-7777777777777777-|

"I drowned out all my sense with..."
G|---------------------------------------------------------------------|
D|---------------------------------------------------------------------|
A|-----------------------------------6---------------------------------|
E|99999999-77777777-99999999-7777-79---9-55555555-00000000-77777777777-|


Intro x1


Verse
G|-------------------------------------------------------|
D|-------------------------------------------------------|
A|-------------------------------------------------------|
E|5-5-5--5-5-5--7-7-7-9-9-9--12\-5-5-5-5-5-5-7-7-7-9-9-9-|


Verse 2
G|----------------------------------------------------------|
D|----------------------------------------------------------|
A|----------------------------------------------------------|
E|5-5-5--5-5-5--7-7-7-9-9-9--5-5-5-5-5-5-7-7-7-9-9-9-12\-0~-|


Chorus
G|--------------------------------------------------------------------------|
D|--------------------------------------------------------------------------|
A|--------------------------------------------------------------------------|
E|55555555-00000000-99999999-777777777777-5555555-00000000-7777777777777777-|

G|--------------------------------------------------------------------|
D|--------------------------------------------------------------------|
A|--------------------------------------------------------------------|
E|99999999-77777777-99999999-77777777-55555555-00000000-7777777777777-|


Bridge "Pain make your way to me, to me.."
G|---------------------------|
D|---------------------------|
A|---------------------------|
E|5-5-5--5-5-5--7-7-7-9-9-9--| x4


Intro x2

G|-------------------|
D|-------------------|
A|-------------------|
E|77777777777777-12\-|


Chorus
G|--------------------------------------------------------------------------|
D|--------------------------------------------------------------------------|
A|--------------------------------------------------------------------------|
E|55555555-00000000-99999999-777777777777-5555555-00000000-7777777777777777-|

G|--------------------------------------------------------------------|
D|--------------------------------------------------------------------|
A|--------------------------------------------------------------------|
E|99999999-77777777-99999999-77777777-55555555-00000000-7777777777777-|


Outro
G|--------------------|
D|--------------------|
A|--------------------|
E|5-5-5--5-5-5--0~----|


 3.Hallelujah(thunderscreem)

 Intro
G|------------------------------------|
D|------------------------------------|
A|------------------------------------| (2x)
E|--7777777777777777666666000000000---|


Verse
G|----------------------------------------|
D|----------------------------------------|
A|----------------------------------------| (2x)
E|--77-7~-44-4~-22-2~-00-0~--44-4~-22-2~--|

G|------------------------------------|
D|------------------------------------|
A|------------------------------------|
E|--777777777777777744444444-0-0-0-0--|


Chorus
G|------------------------------------|
D|------------------------------------|
A|------------------------------------| (2x)
E|--7777777777777777666666000000000---|

G|------------------------------------------------|
D|------------------------------------------------|
A|------------------------------------------------| (2x)
E|--7-77-7-77-7-77-7-77-6-66-6-66-0-00-0-00-0-00--|


Verse II
G|----------------------------------------|
D|----------------------------------------|
A|----------------------------------------| (2x)
E|--77-7~-44-4~-22-2~-00-0~--44-4~-22-2~--|

G|------------------------------------|
D|------------------------------------|
A|------------------------------------|
E|--777777777777777744444444-0-0-0-0--|


Chorus
G|------------------------------------|
D|------------------------------------|
A|------------------------------------| (2x)
E|--7777777777777777666666000000000---|

G|------------------------------------------------|
D|------------------------------------------------|
A|------------------------------------------------| (2x)
E|--7-77-7-77-7-77-7-77-6-66-6-66-0-00-0-00-0-00--|


Riff:
G|---------------------------------------------------------|
D|---------------------------------------------------------|
A|--666777999-14-14-14-14-14-14--666777999-11-11-11-11-11--| (4x)
E|---------------------------------------------------------|

G|--------------------------------|
D|--------------------------------|
A|--222222222222222222244466676~--|
E|--------------------------------|


Chorus
G|------------------------------------|
D|------------------------------------|
A|------------------------------------| (2x)
E|--7777777777777777666666000000000---|

G|------------------------------------------------|
D|------------------------------------------------|
A|------------------------------------------------| (2x)
E|--7-77-7-77-7-77-7-77-6-66-6-66-0-00-0-00-0-00--|

End at
G|---------|
D|---------|
A|---------|
E|--77-7~--|


 4.Misery Business(iheart_a7x)

 Intro
G|------------------------------------------------|  |------------|
D|-----8h10-8h10----------------8h10-8h10---------|  |6666-5555---|
A|88-8-----------66-6-66-6-88-8-----------44-44-4-|  |------------|
D|------------------------------------------------|x2 |------------|


Verse
G|--------------------------------------------|
D|--------------------------------------------|
A|-----1h3-1h3----------------1h3-1h3-44-4-44-|
D|33-3---------11-1-11-1-33-3-----------------|

G|---------------------------------------------|
D|---------------------------------------------|
A|-----1h3-1h3----------------1h3-1h3----------|
D|33-3---------11-1-11-1-33-3---------6666-5555|

G|--------------------------------------------|
D|--------------------------------------------|
A|-----1h3-1h3----------------1h3-1h3-44-4-44-|
D|33-3---------11-1-11-1-33-3-----------------|


Pre-Chorus
G|------------------------------------------------------------|
D|------------------------------------------------------------|
A|-----1h3-1h3----------------1h3-1h3-------------------------|
D|33-3---------11-1-11-1-33-3---------6666-5555-3-3-33-111111-|


Chorus
G|------------------------------------------------------------------------|
D|------------6---6---------------55-6------------------------------55-6--|
A|4-4-464-------6---66666666-8888------4-4-464---------66666666-8888------|
D|--------6-6----------------------------------6-6-686--------------------|

G|------------------------------------------------------------------|
D|-----------------------------------------------------------6666-5-|
A|4-4-4-4-4-4-4-----6-6-6-6-6-6-6888-4-4-4-4-4-4-----6-6-6-6--------|
D|--------------545------------------------------545----------------|


Intro x2
repeat all of the verse

pre-chorus x1


Bridge
G|-----------------------------------------|
D|-------66666666--------------------------|
A|4444444--------666666666-88888-1010101010|
D|-----------------------------------------|

G|--------------------------------------------|
D|--------------------------------------------|
A|44444444----------66666666-8888-1010101010--|
D|---------66666666---------------------------|

G|-----------------------------------------|
D|-------66666666--------------------------|
A|4444444--------666666666-88888-1010101010|
D|-----------------------------------------|

Breakdown, guitar solo
G|------------------------------------------------------------------------|
D|------------6---6---------------55-6------------------------------55-6--|
A|4-4-464-------6---66666666-8888------4-4-464---------66666666-8888------|
D|--------6-6----------------------------------6-6-686--------------------|

G|----------------------------------------------------------------------|
D|--------------------------------------------------------------6666-5--|
A|4444444444444-----6666666666-6-888-4444444444444-----66666666---------|
E|--------------545--------------------------------545------------------|

rest


Chorus x1


Outro:
G|------------------------------------------------|  |---------|
D|-----8h10-8h10----------------8h10-8h10---------|  |---------|
A|88-8-----------66-6-66-6-88-8-----------44-44-4-|  |4-4-4444-|
D|------------------------------------------------|x2 |---------|


 5.When It Rains(iheart_a7x)

 Chorus
G|---------------------------------------------|  |------|
D|---------------------------------------------|  |------|
A|---------3---3-666666-----------------33333--|  |------|
E|55555555---5----------55555555-7-5-7---------| x2 |-0~---|


Verse "And when it rains..."
G|------------------------------------|
D|------------------------------------|
A|3333333333333333--------------------|
E|-----------------55555555-00000000--| x2


Pre-Chorus "We don't miss a thing..."
G|----------------------------------------------------------|
D|----------------------------------------------------------|
A|----------------------------------6p5-3-1-----------------|
E|2222222222222222-0000000000000000---------222222222222222-|

G|--------------------------|
D|----------8----8888-------|
A|------------66------------|
E|000000000-----------------|


Chorus x2

Verse x2

Pre-Chorus x1

Chorus x2


Bridge "Take my time..."
G|---------------------------------------------------|
D|---------------------------------------5-6---5-----|
A|-------------------------------------6-----6---6---|
E|2-2-22-2-2-2-0-0-0-00-0-0-5-5-55-5-5---------------|

G|-----------------------------------------|
D|-----------------------------------------|
A|---------------------------4~--4~--4~----|
E|2-2-22-2-2-2-0-0-0-00-0-0----------------|

Rest

G|----------------|
D|----------------|
A|1111--33333-----|
E|----------------|


Chorus x4


Outro "You can take your time..."
G|-----------------------|
D|-----------------------|
A|-----------------------|
E|2~---0~----5-5-5-5~----|


 6.Let the Flames Begin(iheart_a7x)

 Intro no bass until (0:12)
G|----------------------------------------------------|
D|----------------------------------------------------|
A|----------------------------------------------------|
D|424-4-2h4-777777777777777-00-0-0-00-9999999999999999|


Verse
G|----------------------------------------------------------------------|
D|----------------------------------------------------------------------|
A|-------------------------------7---5555555555555555-------------------|
D|4444444444444444-7777777777777---7------------------999999999999999999| x2


Pre-Chorus
G|---------------|
D|---------2-2h4-|
A|5~---2~--------|
D|---------------|


Chorus
G|------------------------------------------------------------------|
D|------------------------------------------------------------------|
A|------------------------------------------------------------------|
D|4444444444444444-7777777777777777-000000000000000-9999999999999999| x2


Verse x2

Pre-Chorus
G|----------------------|
D|---------2-2-2h4p2----|
A|5~---2~---------------|
D|----------------------|


Chorus x2


Bridge "reaching as I sink down into light..."
G|--------------------------------|
D|-----------------4~--7~--9h11-9-|
A|--------------------------------|
D|4~--7~--0~--9~------------------|


Chorus x3


Outro
G|-------------|
D|-------------|
A|-------------|
D|--5~---------|


 7.Miracle(iheart_a7x)

 Intro
G|------------------------------------------------------|
D|------------------------------------------------------|
A|------------------------------------------------------|
E|9999999-55555555-99999999-77777797-555555555-0000-222-|

G|-------------------------------------------------------|
D|-------------------------------------------------------|
A|-------------------------------------------------------|
E|9999999-55555555-99999999-77777797-555555555-0-0-22-5~-|

slide down 12th


Verse
G|------------------------------------------------------------------------|
D|------------------------------------------------------------------------|
A|------------------------------------------------------------------------|
E|55555555-7777-4444-55555555-00000000-55555555-7777-4444-55555555-00-22--|


Chorus
G|------------------------------------------------------|
D|------------------------------------------------------|
A|------------------------------------------------------|
E|9999999-55555555-99999999-77777797-555555555-0000-222-|

G|-------------------------------------------------------|
D|-------------------------------------------------------|
A|-------------------------------------------------------|
E|9999999-55555555-99999999-77777797-555555555-0-0-22-5~-|


Verse x4

G|--------------|
D|--------------|
A|--------------|
E|-000-222-5~---|


Chorus x2


Bridge "Let's not fake it.."
G|-------------------------------------------------|
D|-------------------------------------------------|
A|-------------------------------------------------|
E|999999999999999999999999999999-0000000-77777777--|

G|---------------------------------------------|
D|---------------------------------------------|
A|---------------------------------------------|
E|9999-9-9999-9999-9-9999-9-00000000-77777777--| x2


Verse
G|------------------------------------------------------------------------|
D|------------------------------------------------------------------------|
A|------------------------------------------------------------------------|
E|55555555-7777-4444-55555555-00000000-55555555-7777-4444-55555555-000-2~-|


Chorus x1


outro chorus
G|------------------------------------------------------------------------|
D|------------------------------------------------------------------------|
A|------------------------------------------------------------------------|
E|55555555555555555555555555555555-9999999999999999999999999999999999-777-|x2

G|--------------|
D|--------------|
A|--------------|
E|-5~-----------|


 8.Crushcrushcrush(Unregistered)

 Intro
G|-------------|
D|-------------|
A|-222---------|
E|-------------|


Verse
G|---------------------------------------|
D|--------22222222-----------------------|
A|44444444--------22222222-44444-2---2---|
E|---------------------------------4-----|


Verse (repeated)
G|---------------------------------------|
D|--------22222222-----------------------|
A|44444444--------22222222222222222------|
E|---------------------------------------|


Verse 2
G|--------------------------------------------------------------------------------|
D|--------------------------------------------------------------------------------|
A|--------4~--4-6-7-6-4-----------------------------------------------------------|
E|5~--7~----------------7---5-5-5-5-7-7-7-7-9-9-9-9-7-99-7-999-97--55-55-5-444-4-4|


Pre-Chorus "Crush..."
G|---------------|
D|---------------|
A|-4~----4~------|
E|---------------|


Chorus
G|---------------------------------------------|
D|---------------------------------------------|
A|-44-77--------44---44-77---------------------|
E|-------7---55----7-------7~--55555555-77777--|

Pre-verse
G|------------------------------------|
D|------------------------------------|
A|-4-4-4-2-2-2-2-2-4-4-4-2-2-2-444----|
E|------------------------------------|


Verse

Verse (repeated)

Verse 2

Pre-Chorus

Chorus


Bridge "rock and roll."
G|-----------------|
D|-----------------|
A|-4--7------------|
E|------7--55-5----| x4

G|---------------------------------------------------------------|
D|---------------------------------------------------------------|
A|------------------------------------44-77----------------------|
E|999-000-77777777-555-000-7777-8888--------7~--55555555-7777777-|


Chorus x1


Outro
G|-------------------------------------------------------|
D|-------------------------------------------------------|
A|-------------------------------------------------------|
E|99999999-88888888-77777797-66666666-55555555-77777777-9|


 9.We Are Broken

 Verse 1.1 x4(Start on 00:14)
G|----------------------------|
D|----------------------------|
A|2~-1~-----------------------|
D|------1~-4~-----------------|
 Pre-Chorus
G|-------------------------------|
D|--11-9-4~----------------------|
A|---------2~-4~-6-8-------------|
D|9------------------------------|
 Chorus x2
G|--------------------|
D|--------------------|
A|-----9999-44446688--|
D|9999----------------|
 Chorus Ending
G|-----------------------------|
D|-----------------------------|
A|-----------------------------|
D|9~-8~-4~-6~-4~---------------|

 Verse x4
G|-------------------------------|
D|----024-----420----------------|
A|2-2-----1-1--------------------|
D|----------------1-1-4-4--------|


Pre-Chorus
G|------------------------------|
D|--11-9-4~---------------------|
A|---------2~-4~-6-8------------|
D|9-----------------------------|


Chorus x2
G|--------------------|
D|--------------------|
A|-----9999-44446688--|
D|9999----------------|
 Chorus Ending
G|-------------------------|
D|-------------------------|
A|-------------------------|
D|9~-8~-4~-6~-4~-----------|
 Bridge x2
G|--------------------|
D|--------------------|
A|--------------------|
D|4444-2222-99999999--|
 Hayley sings alone then bass builds up(Comes in at 2:51)
G|--------------------------|
D|--------------------------|
A|--------------------------|
D|44444444-4~---------------|


Chorus x2
G|--------------------|
D|--------------------|
A|-----9999-44446688--|
D|9999----------------|
 Chorus Ending
G|------------------------|
D|------------------------|
A|------------------------|
D|9~-8~-4~-6~-4~----------|


 10.Fences(iheart_a7x)

 Intro
G|--------------------------------------------------------------------|
D|-----------------4--------4---7---------------------4---------------|
A|--4-5-7---4-5-7-----7-5-4---7---5-----4-5-7---4-5-7---7-5-4-5-7-5-4-|
E|7-------7---------------------------7-------7-----------------------|


Verse
G|--------------------------------------------------------------------|
D|-----------------4--------4---7---------------------4---------------|
A|--4-5-7---4-5-7-----7-5-4---7---5-----4-5-7---4-5-7---7-5-4-5-7-5-4-|
E|7-------7---------------------------7-------7-----------------------|

G|-------------------------|
D|-------------------------|
A|-------------------------|
E|0-0-0-0-0-0-0-0-5-5-5-5-5|


verse x1


Pre-Chorus
G|---------------------------------|
D|---------------------------------|
A|----5~----------------5----------|
E|0~------5~--0--2--3-5----5-22222-|


Chorus
G|-----------------------------------------------------------------------|
D|-----------------------------4-5-4-5p4----------------4-5-4-5p4--------|
A|-------------------------2-5----------------------2-5------------------|
E|7---3-0-2-7-7\--3-0-2--3----------------0-0-0-0-3---------------55-00-7|


Intro x4

G|-------------------------|
D|-------------------------|
A|-------------------------|
E|0-0-0-0-0-0-0-0-5-5-5-5-5|


Pre-Chorus x1


Bridge "yeah, yeah you're asking for it..."
G|-----------------|
D|-----------------|
A|--------5-5------|
E|0-0-3-3-----5-5--| x2

Breakdown
G|---------------------------------------------------------|
D|---------------------------------------------------------|
A|---------------------------------------------------------|
E|7-7-7-0-7-6-6-6-0-6-5-5-5-0-5-4-4-4-4-0-4-3-3-3-3-3-3-3-5| x2

G|---------------------------------|
D|--------4-5-4--------------------|
A|--4-5-7-------7-----2-5----------|
E|7----------------33------00-33---| x2


Bridge x2

Chorus
G|------------------------------------------------------------------------|
D|-----------------------------4-5-4-5p4----------------4-5-4-5p4---------|
A|-------------------------2-5----------------------2-5-------------------|
E|7---3-0-2-7-7\--3-0-2--3----------------0-0-0-0-3---------------0-0-0-0-|

G|-----------------------------------------------------|
D|--------4-5-4-5p4----------------4-5-4---------------|
A|---2-5----------------------2-5----------5-----------|
E|-3----------------0-0-0-0-3------------3------55-00-7|


Intro x1


Outro
G|-----------------------------------|
D|-----------------4--------4---444-4|
A|--4-5-7---4-5-7-----7-5-4---7------|
E|7-------7--------------------------|


 11.Born for This(iheart_a7x)

  Intro
G|-----------------------------------|
D|-----------------------------------|
A|------------------44444-6-66-6h8p6-|
E|99999999-77777777------------------| x2


Verse "Oh no I just keep on falling..."
G|-----------------------------------------------------------------------------|
D|-----------------------------------------------------------------------------|
A|-----------------------1-4-4-88-66-44-33-1--1----------------1-4-8888-6-8-6--|
E|4-9--9-5--54--4-9--9-2------------------------5-54--4-9--9-2-----------------|


Pre-Chorus "It takes acquired minds..."
G|---------------------------------------------------|
D|---------------------------------------------------|
A|---------------------------------------------------|
E|5~---9~--5~--22-22-22-22-2-2-55-55-77-77-7-7-9---9-|


Chorus
G|---------------------------------------------|
D|---------------------------------------------|
A|---------------------------------------------|
E|5---5-00000000-44444444-5-5-9999999-77777777-|

G|--------------------------------------------------------------------------|
D|--------------------------------------------------------------------------|
A|--------------------------------------------------------------------------|
E|55555555555555-5h7-00000000-44444444-5555555555555555-99999999-7777777-5~-|


Verse x1


Pre-Chorus "It takes acquired minds..."
G|-----------------------------------------------------------------|
D|-----------------------------------------------------------------|
A|-----------------------------------------------------------------|
E|5~---9~--5~--22-22-22-22-2-2-55-55-77-77-7-7-9---9-77777777-5/12-|


Chorus x2

Intro x1


Bridge "Alright so you think you're ready..."
G|-------------------|  |----------------------------------|
D|-------------------|  |----------------------------------|
A|-------------------|  |----------------------------------|
E|5~---7~--9~---2~---| x2 |555555555555555-4444444444444444-5|


Chorus
G|-----------------------------------------|
D|-----------------------------------------|
A|-----------------------------------------|
E|5-00000000-44444444-5-5-9999999-77777777-|

G|-----------------------------------------------------------------------|
D|-----------------------------------------------------------------------|
A|-----------------------------------------------------------------------|
E|55555555555555-5h7-00000000-44444444-5555555555555555-99999999-7777777-|

G|-------------------------------------------------------------------------------|
D|-------------------------------------------------------------------------------|
A|-------------------------------------------------------------------------------|
E|55555555555555-5h7-00000000-44444444-5555555555555555-99999999-7777777-55555555|


Outro Chorus:
G|-----------------|
D|-----------------|
A|-----------------|
E|9---2---5---7---9|

Almost there ...

Sign in to get your own page with links to favourite songs and more. You are just one click away...

Login with Facebook Login with Google