Log in

One click and you are in

Login with Facebook Login with Google

Why sign up and log in

Guitar Tabs Explorer
Paramore bass tabs for Proof

Bass tabs with lyrics

  • Difficulty: Intermediate
Verse 1:
                      So strong it'll knock you down

G|-----------------------------------------------------------------------------------|
D|-----------------------------------------------------------------------------------|
A|-----------------------------------------------------------------------------------|
D|-/10--1-1-1-1--1-1-1-1--1-1-1-1--1-1-3-3--5-5-5-5--5-5-8-8--10-10-10-10--10-10-8-8-|


So strong, so strong          /           Over here

G|---------------------------------------------------------------------------|
D|---------------------------------------------------------------------------|
A|---------------------------------------------------------------------------|
D|--1-1-1-1--1-1-1-1--1-1-1-1--1-1-3-3-----5------3--------8-----------------|

                 I can't count the miles away from where I wanna be

G|------------------------------------------------------------------------------|
D|------------------------------------------------------------------------------|
A|------------------------------------------------------------------------------|
D|-1-1-1-1--1-1-1-1--1-1-1-1--1-1-3-3--5-5-5-5--5-5-8-8--10-10-10-10--10-10-8-8-|


                I bet your skin is warm and that you're smiling

G|------------------------------------------------------------------------------|
D|------------------------------------5-5-5-5--5-5------------------------------|
A|-6-6-6-6--6-6-6-6--6-6-6-6--6-6-8-8--------------8-8--10-10-10-10--10-10-8-8--|
D|------------------------------------------------------------------------------|

Yeah, that’s what I always loved the most about you

G|------------------------------------------------------------------------------|
D|------------------------------------------------------------------------------|
A|------------------------------------------------------------------------------|
D|-1-1-1-1--1-1-1-1--1-1-1-1--1-1-3-3--5-5-5-5--5-5-8-8--10-10-10-10--10-10-8-8-|

You're so strong / Come and knock me down, hey

G|----------------------------------------------------------------------------|
D|----------------------------------------------------------------------------|
A|---------------------------------------3------------------------------------|
D|-1-1-1-1--1-1-1-1--1-1-1-1--1-1-3-3-----------------------------------------|

Chorus:

Baby, if I'm half the man I say I am (Whoa-oh-oh)

G|---------------------------------------------------------------------------|
D|---------------------------------------------------------------------------|
A|---------------------------------------------------------------------------|
D|---6--6--6--6-----8--8--8--8-----1--1--1--1-----1--1--1--1-----------------|

If I’m a woman with no fear just like I claim I am (Whoa-oh-oh)

G|---------------------------------------------------------------------------|
D|------------------------------1--------------------------------------------|
A|------------------------1-1-3--------6--6--6--6----6--3--3-3-1-1-----------|
D|---6--6--6--6-----8--6-----------------------------------------------------|

Then I'll believe in what you say / There's nothing left for you to do

G|---------------------------------------------------------------------------|
D|---------------------------------------------------------------------------|
A|------------------------------------------3-----5-----6--------------------|
D|---6--6--6--6-----8--8--8--8-----------------------------------8-----------|

The only proof that I need is you

G|---------------------------------------------------------------------------|
D|---------------------------------------------------------------------------|
A|---------------------------------------------------------------------------|
D|---6--6--6--6-----8--8--8--8-----------------------------------------------|


Verse 2:

I'll get in my car   /   Drive it faster than I ever did before

G|---------------------------------------------------------------------------|
D|---------------------------------------------------------------------------|
A|-----------6-8---8--10----6--8---5-5-5-5--5-5-8-8--10-10-10-10--10-10-8-8--|
D|-1\13/1--------------------------------------------------------------------|

                Head out west until I finally reach the shore

G|------------------------------------------------------------------------------|
D|--------------------------------3-3--5-5-5-5--5-5-----------------------------|
A|--------------------------------------------------8-8--10-10-10-10--10-10-8-8-|
D|-1-1-1-1--1-1-1-1--1-1-1-1--1-1-----------------------------------------------|

           And then I'll swim out to wherever you are

G|---------------------------------------------------------------------------|
D|---------------------------------------------------------------------------|
A|----6-8---8--10----6--8---5-5-5-5--5-5-8-8--10-10-10-10--10-10-8-8---------|
D|-1-------------------------------------------------------------------------|

G|-----------------------0---------------------------------------------|
D|-------------------1-3---3--5-5-5-5--5-5-----------------------------|
A|---------------------------------------------------------------------|
D|-1-1-1-1--1-1-1-1----------------------------------------------------|

And we'll ride the undercurrent down to the floor

G|------------------------------------------------------------------------------|
D|------------------------------------------------------------------------------|
A|---------------------------------10--10--10--10-----10--10--8--8--------------|
D|---5--5--5--5-----5--5--8--8--------------------------------------------------|

               Making friends with all the unfamiliar creatures

G|------------------------------------------------------------------------------|
D|------------------------------------------------------------------------------|
A|------------------------------------------------------------------------------|
D|-1-1-1-1--1-1-1-1--1-1-1-1--1-1-3-3--5-5-5-5--5-5-8-8--10-10-10-10--10-10-8-8-|

               And pushing back on the unnecessary pressure

G|------------------------------------------------------------------------------|
D|------------------------------------------------------------------------------|
A|------------------------------------------------------------------------------|
D|-1-1-1-1--1-1-1-1--1-1-1-1--1-1-3-3--5-5-5-5--5-5-8-8--10-10-10-10--10-10-8-8-|

           Come up for air just so you know we won’t drown

G|------------------------------------------------------------------------------|
D|------------------------------------------------------------------------------|
A|--------------------------------------------------------------------8-6-------|
D|-1-1-1-1--1-1-1-1--1-1-1-1--1-1-3-3--5-5-5-5--5-5-8-8--10-10-10-10------8-6---|

      You're so strong  /  The world can't keep us down, hey


G|----------------------------------------------------------------------------------------|
D|----------------------------------------------------------------------------------------|
A|----------------------------------------------------------------------------------------|
D|-1-1-1-1--1-1-1-1--1-1-1-1--1-1-3-3--10-10-10-10--10-10-10-10--10-10-10-10--10-10-10-10-|


Chorus:

Baby, if I'm half the man I say I am (Whoa-oh-oh)

G|---------------------------------------------------------------------------|
D|---------------------------------------------------------------------------|
A|---------------------------------------------------------------------------|
D|---6--6--6--6-----8--8--8--8-----1--1--1--1-----1--1--1--1-----------------|

If I’m a woman with no fear just like I claim I am (Whoa-oh-oh)

G|---------------------------------------------------------------------------|
D|-------------------------------------------------------------3-5-3---------|
A|-----------------------------------------6--6--6--6----5-6-5--------5-6----|
D|---6--6--6--6----8--8----10--8--10--8--------------------------------------|

Then I'll believe in what you say / There's nothing left for you to do

G|---------------------------------------------------------------------------|
D|---------------------------------------------------------------------------|
A|------------------------------------------3-----5-----6--------------------|
D|---6--6--6--6-----8--8--8--8-----------------------------------8-----------|

The only proof that I need is you

G|---------------------------------------------------------------------------|
D|---------------------------------------------------------------------------|
A|---------------------------------------------------------------------------|
D|---6--6--6--6-----8--8--8--8-----------------------------------------------|


Bridge:

Yeah, ooh, yeah, hey       /     Yeah, ooh, yeah, hey

G|-----------------------------10----10----10-12-----------------------------|
D|-----------------10-13-12-13----13-------------13--------------------------|
A|---------------------------------------------------------------------------|
D|---------------------------------------------------------------------------|

G|---------------------------------------------------------------------------|
D|--------10------10------10-------------------------------------------------|
A|----13------13------13--------13--8----------------------------------------|
D|--------------------------------------13---------10/1---10/1---------------|

  So do you love me? (Yeah) /  All you got to do is say yes

G|---------------------------------------------------------------------------|
D|---------------------------------------------------------------------------|
A|-------6--6----6--6----6--6----6--6----3--3----3--3------------------------|
D|-------------------------------------------------------8--8----8--8--------|

  Now do you love me? / And I won't ever second guess

G|---------------------------------------------------------------------------|
D|---------------------------------------------------------------------------|
A|-----------------------------------------3--3----3--3----------------------|
D|-------6--6----6--6----6--6----6--6----------------------------------------|


      Now do you love me? (Yeah)  /  All you got to do is say yes

G|------------10----10----10-12-----------------------------------------------------|
D|-10-13-12-13----13-------------13-------------------------------------------------|
A|-------------------------------------6--6----6--6----6--6----6--6----3--3----3--3-|
D|----------------------------------------------------------------------------------|

 Now do you love me? (Yeah, hey)  /  Then you already proved it

G|------------------------------------------------------------------------------|
D|------------------------------------------------------------------------------|
A|-------------------------------------------------3--3----3--3-----------------|
D|-8--8----8--8----6--6----6--6----6--6----6--6--------------------8--8----8--8-|

Yeah, yeah, hey


Chorus:

Baby, if I'm half the man I say I am (Whoa-oh-oh)

G|---------------------------------------------------------------------------|
D|---------------------------------------------------------------------------|
A|---------------------------------------------------------------------------|
D|---6--6--6--6-----8--8--8--8-----1--1--1--1-----1--1--1--1-----------------|

If I’m a woman with no fear just like I claim I am (Whoa-oh-oh)

G|---------------------------------------------------------------------------|
D|------------------------------1--------------------------------------------|
A|------------------------1-1-3--------6--6--6--6------3------1--------------|
D|---6--6--6--6-----8--6-----------------------------------------------------|

Then I'll believe in what you say / There's nothing left for you to do

G|---------------------------------------------------------------------------|
D|---------------------------------------------------------------------------|
A|------------------------------------------3-----5-----6--------------------|
D|---6--6--6--6-----8--8--8--8-----------------------------------8-----------|

The only proof that I need is

G|---------------------------------------------------------------------------|
D|---------------------------------------------------------------------------|
A|---------------------------------------------------------------------------|
D|---6--6--6--6-----8--8--8--8-----------------------------------------------|

Baby, if I'm half the man I say I am (Whoa-oh-oh)

G|---------------------------------------------------------------------------|
D|---------------------------------------------------------------------------|
A|---------------------------------------------------------------------------|
D|---6--6--6--6-----8--8--8--8-----1--1--1--1-----1--1--1--1-----------------|

If I’m a woman with no fear just like I claim I am (Whoa-oh-oh)

G|---------------------------------------------------------------------------|
D|------------------------------------------------------3----5-3-------------|
A|---------------------------------6--6---6-6-5--6-5-6-----6-----3-----------|
D|---6--6--6--6------8--8--8--8----------------------------------------------|

Then I'll believe in what you say / There's nothing left for you to do

G|---------------------------------------------------------------------------|
D|---------------------------------------------------------------------------|
A|------------------------------------------3-----5-----6--------------------|
D|---6--6--6--6-----8--8--8--8-----------------------------------8-----------|

The only proof that I need is you

G|---------------------------------------------------------------------------|
D|---------------------------------------------------------------------------|
A|---------------------------------------------------------------------------|
D|---6--6--6--6-----8--8--8--8-----------------------------------------------|


************************************

| / Slide up
| \ Slide down

************************************
ⓘ Bass guitar tab for 'Proof' by Paramore, an alternative rock band formed in 2002 from Tennessee, USA. Paramore is known for their needy rock/pop music.

Almost there ...

Sign in to get your own page with links to favourite songs and more. You are just one click away...

Login with Facebook Login with Google