Log in

One click and you are in

Login with Facebook Login with Google

Why sign up and log in

Guitar Tabs Explorer
Paramore bass tabs for Cest comme ca

Bass tabs

  • Difficulty: Intermediate
🎸 Intro:
 (0:00)

G|--------------------------------|--------------------------------|
D|--------------------------------|--------------------------------|
A|--------------------------------|--------------------------------|
E|--------------------------------|--------------------------------|
 ^    ^    ^    ^    ^    ^    ^    ^
G|--------------------------------|--------------------------------|
D|--------------------------------|--------------------------------|
A|--------------------------------|--------------------------------|
E|--------------------------------|7---7---7---7---6---6---6---6---|
 ^    ^    ^    ^    ^    ^    ^    ^

G|--------------------------------|--------------------------------|
D|--------------------------------|--------------------8---8---8---|
A|--------------------------------|--------------------------------|
E|--------------------------------|--------------------------------|
 ^    ^    ^    ^    ^    ^    ^    ^

G|--------------------------------|--------------------------------|
D|8---8---8---8---8---8---8\------|--------------------------------|
A|--------------------------------|--------------------------------|
E|--------------------------------|7---7---7---7---6---------------|
 ^    ^    ^    ^    ^    ^    ^    ^

🎸 Chorus: (0:15)

G|--------------------------------|--------------------------------|
D|--------------------------------|--------------------------------|
A|--------------------------------|----------------------------3---|
E|----1-------1---1---1-------1---|----1-------1---1---1-----------|
 ^    ^    ^    ^    ^    ^    ^    ^

G|--------------------------------|--------------------------------|
D|--------------------------------|--------------------------------|
A|----4-------4---4---4-------4---|----4-------4-----------3-------|
E|--------------------------------|----------------6---6-------4\--|
 ^    ^    ^    ^    ^    ^    ^    ^

G|--------------------------------|--------------------------------|
D|--------------------------------|--------------------------------|
A|--------------------------------|----------------------------3---|
E|----1-------1---1---1-------1---|----1-------1---1---1-----------|
 ^    ^    ^    ^    ^    ^    ^    ^

G|--------------------------------|--------------------------------|
D|--------------------------------|--------------------------------|
A|----4-------4---4---4-------4---|----4-------4-----------3-------|
E|--------------------------------|----------------6---6-------4---|
 ^    ^    ^    ^    ^    ^    ^    ^
🎸 Verse 1: (0:29)

G|--------------------------------|--------------------------------|
D|--------------------------------|--------------------------------|
A|----8-------8---8---8-------8---|----8-------8---8---8-------3---|
E|--------------------------------|--------------------------------|
 ^    ^    ^    ^    ^    ^    ^    ^

G|--------------------------------|--------------------------------|
D|--------------------------------|----------------------------8---|
A|----4-------4---4---4-------4---|----4-------4---4---4-----------|
E|--------------------------------|--------------------------------|
 ^    ^    ^    ^    ^    ^    ^    ^

G|--------------------------------|--------------------------------|
D|--------------------------------|--------------------------------|
A|----8-------8---8---8-------8---|----8-------8---8---8-------3---|
E|--------------------------------|--------------------------------|
 ^    ^    ^    ^    ^    ^    ^    ^

G|--------------------------------|--------------------------------|
D|--------------------------------|--------------------------------|
A|----4-------4---4---4-------4---|----4-------4-----------3-------|
E|--------------------------------|----------------6---6-------4\--|
 ^    ^    ^    ^    ^    ^    ^    ^

🎸 Chorus: (0:44)

G|--------------------------------|--------------------------------|
D|------------------------3-3-----|--------------------------------|
A|--------------------------------|----------------------------3---|
E|----1-------1---1---1-------1---|----1-------1---1---1-----------|
 ^    ^    ^    ^    ^    ^    ^    ^

G|------------------------6-6-----|----------------------------------|
D|--------------------------------|---------------/8---8---10--------|
A|----4-------4---4---4-------4---|----4-------4----------------11\--|
E|--------------------------------|----------------------------------|
 ^    ^    ^    ^    ^    ^    ^    ^

🎸 Verse 2: (0:51)

G|--------------------------------|--------------------------------|
D|--------------------------------|--------------------------------|
A|----8-------8-------8-------8---|----8-------8-------8-------3---|
E|--------------------------------|--------------------------------|
 ^    ^    ^    ^    ^    ^    ^    ^

G|--------------------------------|---------------------------------|
D|--------------------------------|---------------------------------|
A|----4-------4-------4-------4---|----4-------4-------4---/---13---|
E|--------------------------------|---------------------------------|
 ^    ^    ^    ^    ^    ^    ^    ^

G|--------------------------------|----------------------------------|
D|--------------------------------|-------------------------8---10\--|
A|----8-------8-------8-------8---|----8-------8-------11------------|
E|--------------------------------|----------------------------------|
 ^    ^    ^    ^    ^    ^    ^    ^

G|--------------------------------|--------------------------------|
D|--------------------------------|--------------------------------|
A|----4-------4-------4-------4---|----4-------4-----------3-------|
E|--------------------------------|----------------6---6-------4\--|
 ^    ^    ^    ^    ^    ^    ^    ^

🎸 Pre-Chorus: (1:06)

G|--------------------------------|--------------------------------|
D|--------------------------------|--------------------------------|
A|--------------------------------|--------------------------------|
E|1~--------------------------4~--|--------------------------------|
 ^    ^    ^    ^    ^    ^    ^    ^

G|--------------------------------|---------------------------------|
D|--------------------------------|---------------------------------|
A|----------------------------4~--|------------------------13\------|
E|6~------------------------------|---------------------------------|
 ^    ^    ^    ^    ^    ^    ^    ^

🎸 Chorus: (1:13)

G|--------------------------------|--------------------------------|
D|------------------------3-3-----|--------------------------------|
A|--------------------------------|----------------------------3---|
E|----1-------1---1---1-------1---|----1-------1---1---1-----------|
 ^    ^    ^    ^    ^    ^    ^    ^

G|------------------------6-6-----|--------------------------------|
D|--------------------------------|--------------------------------|
A|----4-------4---4---4-------4---|----4-------4-----------3-------|
E|--------------------------------|----------------6---6-------4\--|
 ^    ^    ^    ^    ^    ^    ^    ^

G|--------------------------------|--------------------------------|
D|------------------------3-3-----|----------------3---3---3-------|
A|--------------------------------|----------------------------3---|
E|----1-------1---1---1-------1---|----1-------1-------------------|
 ^    ^    ^    ^    ^    ^    ^    ^

G|------------------------6-6-----|----------------------------------|
D|--------------------------------|---------------/8---8---10--------|
A|----4-------4---4---4-------4---|----4-------4----------------11\--|
E|--------------------------------|----------------------------------|
 ^    ^    ^    ^    ^    ^    ^    ^

🎸 Bridge: (1:28)

G|---------------------------------|--------------------------------|
D|---------------------------------|--------------------------------|
A|8~--------------------------11~--|--------------------------------|
E|---------------------------------|--------------------------------|
 ^    ^    ^    ^     ^    ^    ^    ^

G|---------------------------------|---------------------------------|
D|8~--------------------------11~--|----------------------------11\--|
A|---------------------------------|---------------------------------|
E|---------------------------------|---------------------------------|
 ^    ^    ^    ^     ^    ^    ^    ^

G|---------------------------------|------------------------10--------|
D|---------------------------------|----------------------------------|
A|8~--------------------------11~--|-----------------------------11---|
E|---------------------------------|----------------------------------|
 ^    ^    ^    ^     ^    ^    ^    ^

G|--------------------------------|--------------------------------|
D|8~------------------6-----------|--------------------------------|
A|------------------------8---4~--|--------------------------------|
E|--------------------------------|--------------------------------|
 ^    ^    ^    ^    ^    ^    ^    ^

G|--------------------------------|--------------------------------|
D|--------3-----------3-----------|--------6-----------------------|
A|--------------------------------|--------------------6---3---6---|
E|1-----------1---1-----------4---|----4-------4---4---------------|
 ^    ^    ^    ^    ^    ^    ^    ^

G|--------------------------------|--------6-----------6-------6---|
D|--------8-----------8-----------|--------------------------------|
A|------------------------3---4---|----4-------4---4-------4-------|
E|6-----------6---6---------------|--------------------------------|
 ^    ^    ^    ^    ^    ^    ^    ^

G|--------------------------------|--------------------------------|
D|--------3-----------3-----------|--------6-----------------------|
A|--------------------------------|--------------------6---3---6---|
E|1-----------1---1-----------4---|----4-------4---4---------------|
 ^    ^    ^    ^    ^    ^    ^    ^

G|--------------------------------|--------6-----------------------|
D|--------8-----------8-----------|--------------------------------|
A|------------------------3---4---|----4-------4---4---4---4---4---|
E|6-----------6---6---------------|--------------------------------|
 ^    ^    ^    ^    ^    ^    ^    ^

🎸 Chorus: (1:57)

G|--------------------------------|--------------------------------|
D|--------------------------------|--------------------------------|
A|--------------------------------|----------------8-8-8-8-8-8-8---|
E|--------------------------------|--------------------------------|
 ^    ^    ^    ^    ^    ^    ^    ^

G|--------------------------------|--------6-6---------------------|
D|--------------------------------|--------------------------------|
A|----4-------4---4---4-------4---|----4-------4-----------3-------|
E|--------------------------------|----------------6---6-------4---|
 ^    ^    ^    ^    ^    ^    ^    ^

G|--------------------------------|--------------------------------|
D|------------------------3-3-----|--------------------------------|
A|--------------------------------|----------------------------3---|
E|----1-------1---1---1-------1---|----1-------1---1---1-----------|
 ^    ^    ^    ^    ^    ^    ^    ^

G|------------------------6-6-----|----------------------------------|
D|--------------------------------|---------------/8---8---10--------|
A|----4-------4---4---4-------4---|----4-------4----------------11\--|
E|--------------------------------|----------------------------------|
 ^    ^    ^    ^    ^    ^    ^    ^

G|--------------------------------|--------------------------------|
D|------------------------3-3-----|------------------------6-6-----|
A|--------------------------------|--------------------------------|
E|----1-------1---1---1-------1---|----4-------4---4---4-------4---|
 ^    ^    ^    ^    ^    ^    ^    ^

G|--------------------------------|------------------------6-------|
D|------------------------8-8-----|--------------------------------|
A|--------------------------------|----4-------4---4---4-------4---|
E|----6-------6---6---6-------6---|--------------------------------|
 ^    ^    ^    ^    ^    ^    ^    ^

G|--------------------------------|--------------------------------|
D|------------------------3-3-----|--------6---------------6-------|
A|--------------------------------|--------------------------------|
E|----1-------1---1---1-------1---|----4-------4-------4-------4---|
 ^    ^    ^    ^    ^    ^    ^    ^

G|--------------------------------|----------------------------------|
D|------------------------8-8-----|---------------/8---8---10--------|
A|--------------------------------|4---4---4---4----------------11---|
E|----6-------6---6---6-------6---|----------------------------------|
 ^    ^    ^    ^    ^    ^    ^    ^

Key:
~ = hold note
^ = beat
 = staccato
\ = slide down
/ = slide up
paramore cest comme ca music video
ⓘ Bass guitar tab for 'Cest Comme Ca' by Paramore, an alternative rock band formed in 2002 from Tennessee, USA. Paramore is known for their needy rock/pop music.

Almost there ...

Sign in to get your own page with links to favourite songs and more. You are just one click away...

Login with Facebook Login with Google