Log in

One click and you are in

Login with Facebook Login with Google

Why sign up and log in

Guitar Tabs Explorer
Paramore bass tabs for Careful

Bass tabs

Careful bass tab by Andreqpo


Tuning: Drop C#

/= slide

Intro
|------------------------------------|
|------------------------------------|x2
|------------------------------------|
|-44-444-4777-9-999-44-444-4999-2-2--|


Verse
|----------------------------------------|
|----------------------------------------|x2
|-----------------/9~--------------------|
|-4444444444444444------0000000022222222-|


Pre-chorus
|-----------------------------------------------------------|
|-----------------------------------------------------------|
|---------00000000--------55555555--------00000000----------|
|-44444444--------22222222--------44444444--------22222222--|


Chorus
|----------------------------------|
|----------------------------------|x2
|-----------------0000000022222220-|
|-4444444400000000-----------------|

Post-chorus
|-------------------------------------------------------------------------|
|-------7h9~----7h9~----------------------7h9~----7h9~--------------------|
|-2~-7h9-----7h9------------000000002~-7h9-----7h9-----------------4h5p4~-|
|-------------------44444444---------------------------444444442222-------|

Introx1


Verse2 (11 means eleven)
|------------------------------------------------------------------------------------|
|----------------------------------------1179117911-1179117911-1179117911-1179117911-|
|-----------------/9~------------------------------7----------7----------7-----------|
|-4444444444444444------0000000022222222/--------------------------------------------|

------------------|
------------------|
------------------|
-0000000022222222-|


Pre-chorus


Chorusx2

Post-chorus


Bridge
|-------------------------------------------------------------------------------------------------|
|-------------------------------------------------------------------------------------------------|
|-2-2-2-------0-0-0-------2-2-2-------0-0-0-------2-2--------0-0-0--------2-2---------0-0-0-------|
|-------0-0-0-------2-2-2-------0-0-0-------2-2-2------0-0-0-------2-2-2-------00-0-0-------2-2-2-|

|------------------------------------------------------------------|
|------------------------------------------------------------------|
|---------00022222--------222-------------00022222--------222------|
|-44444444--------44444444---2222244444444--------44444444---22222-|


Chorusx4

Post-chorus


Introx1

Ends on
|-----|
|-----|
|-2~--|

Other versions of Careful

Careful (Ver. 2)Bass tabs

Almost there ...

Sign in to get your own page with links to favourite songs and more. You are just one click away...

Login with Facebook Login with Google