Log in

One click and you are in

Login with Facebook Login with Google

Why sign up and log in

Guitar Tabs Explorer
Paradise Lost bass tabs for One second

Bass tabs with lyrics

Tuning: Standard (E A D G)


Verse: Whole song is this verse, bass comes with the drums
G|-------------------------------------------------------------------|
D|-------------------------------------------------------------------|
A|-0-0-0-0-0-0-0---------------------------------3-3-3-3-3-2-2-2-2-2-|
E|--------------0-0-0-0-0-0-0-0-3-3-3-3-3-3-3-3-3--------------------|

At the very end play this once

G|----------------------------------------------------------------------|
D|----------------------------------------------------------------------|
A|-0---------2h3---------------------------------3---------2------3h2-0-|
E|--------------0-------------0-3---------------3-----------------------|

************************************

| h  Hammer-on

************************************
And for one second, I lost my head

And for one second, I wished that you were dead

And for one second, you wish that you were here all alone

Hold back the tears that could fall for me


And for one second, I lost my breath

And for one second, I cherish that you said

And for one second, it seemed that I was here all alone

Hold back the tears that could fall for me


And for one second, I understand

And for one second, my life was in your hands

And for one second, you wish that you were here all alone

Hold back the tears that could fall for me

They fall alone

Almost there ...

Sign in to get your own page with links to favourite songs and more. You are just one click away...

Login with Facebook Login with Google