Log in

One click and you are in

Login with Facebook Login with Google

Why sign up and log in

Guitar Tabs Explorer
Pappo bass tabs for Fiesta cervezal

Bass tabs with lyrics

\
  (4 vueltas)  (2 vueltas)  (2 vueltas)   |
G|--------------|--------------|--------------| |
D|--------------|--------------|--------------| |
A|--------------|-3h5-5-5--3-0-|--------------| |
E|-3h5-5-5--3-0-|--------------|-3h5-5-5--3-0-| |
                         |Parte
                (2 vueltas)   | A
G|----------------------------|--------------|  |
D|----------------------------|--------------|  |
A|-5h7-7-7--5-3--3h5-5-5--3-0-|--------------|  |
E|----------------------------|-3h5-5-5--3-0-|  |
                         /
Repite parte A (3 veces mas). Despues:

1:28    (22 veces)
G|--------------------------------|  h: hammer on (ligado)
D|--------------------------------|
A|--------------------10--10--10--|
E|-3h5-5-5-5-5-5-5-5--8---8---8---|


En la version del disco Pappo y amigos? y en todas las que toco Youlie Ruth
el bajo toca el mismo riff que la guitarra. A mi gusto mejor que la original.


  (4 vueltas)  (2 vueltas)  (2 vueltas)
G|--------------|--------------|--------------|
D|--------------|--------------|--------------|
A|--------------|-5-3-0-5--3-0-|--------------|
E|-5-3-0-5--3-0-|--------------|-5-3-0-5--3-0-|
                 (2 vueltas)
G|----------------------------|--------------|
D|----------------------------|--------------|
A|-7-5---7--5----5-3-0-5--3-0-|--------------|
E|-----7------7---------------|-5-3-0-5--3-0-|

Repite parte A (3 veces mas). Despues:

     (4 vueltas)
G|----------------------------|-------------------------------
D|----------------------------|-------------------------------
A|-0--0-0-0-0-0-0-0--2--2--2--|-0--0--0--0--0-- -------0------
E|----------------------------|-------------------------------

Fiesta cervezal (Pappo)

Quiero tomar,
un trago de,
cerveza fresca,
para mi sed,
hace calor,
en esta fiesta.

Quiero tomar,
un trago de,
licor muy fino,
con mis amigos,
hace calor,
y no he bebido.

Mientras su musica se siga tocando y escuchando el carpo jamas morira,
vivira eternamente en la memoria de todos.

Almost there ...

Sign in to get your own page with links to favourite songs and more. You are just one click away...

Login with Facebook Login with Google