Log in

One click and you are in

Login with Facebook Login with Google

Why sign up and log in

Guitar Tabs Explorer
Pappo tabs for Buscando el tesoro de borneo

Guitar tabs

------------------------------------------------------------------

Pappo - Buscando el tesoro de Borneo

Tabed by: Facundo Daniel Bressan

------------------------------------------------------------------

Well, this is a begininng.
Any question, comentary, or correction: zero_cool@fibertel.com.ar

Good Loock!!!

Facu.

------------------------------------------------------------------

28/01/2002  22:20 Hs.

------------------------------------------------------------------

Symbols:

h: Hammer on
p: Pull off
b(): Bend to ()
r: Release
~: Vibrato
/: Slide

------------------------------------------------------------------

Turn 1/2 step down: A chord diagramEb MajorEb A chord diagramAbAb A chord diagramDbDb A chord diagramGbGb A chord diagramBb majorBb eb


|----------------------------------------------|
|----------------------------------------------|
|--/7b(9)~-5-12-10-9-7-7b(9)~--5-7-9-10-12-5~~-|
|----------------------------------------------|
|----------------------------------------------|
|----------------------------------------------|

|------------------------------------------|
|------------------------------------------|
|--5-7-9-7-5-7-4~--4-5-7-2~--2-4---6b(7)r--|
|--------------------------------2---------|
|------------------------------------------|
|------------------------------------------|

|----------------------------------------------|
|----------------------------------------------|
|--/7b(9)~-5-12-10-9-7-7b(9)~--5-7-9-10-12-5~~-|
|----------------------------------------------|
|----------------------------------------------|
|----------------------------------------------|

|------------------------------------------|
|------------------------------------------|
|--5-7-9-7-5-7-4~--4-5-7-2~--2-4---6b(7)r--|
|--------------------------------2---------|
|------------------------------------------|
|------------------------------------------|

|---------------------------------------------------|
|---------------------------------------------------|
|--2-4-5-7-2-9b(11)-7h9-10b(12)-9-10-12-12b(14)~~r--|
|---------------------------------------------------|
|---------------------------------------------------|
|---------------------------------------------------|

|-------------------------------------------------------------|
|-------------------------------------------------------------|
|--10-12-14b(16)~~r--14-12-10-12p10p9~-10-12b(14)-9-14b(16)r--|
|-------------------------------------------------------------|
|-------------------------------------------------------------|
|-------------------------------------------------------------|

|-----------------------------------------|
|--------12-13-17-15~--15-17-15-13-15-12--|
|--12-14----------------------------------|
|-----------------------------------------|
|-----------------------------------------|
|-----------------------------------------|

|---------------------------------------------------------------------|
|--17-15-13-15-13-12-13-12-10-12-10-8-10-8-6-6h8-10b(12)-5~-12b(14)r--|
|---------------------------------------------------------------------|
|---------------------------------------------------------------------|
|---------------------------------------------------------------------|
|---------------------------------------------------------------------|

|---------------------------------------------------------------------|
|--17-15-13-15-13-12-13-12-10-12-10-8-10-8-6-6h8--/6--/8--/10b(12)r---|
|---------------------------------------------------------------------|
|---------------------------------------------------------------------|
|---------------------------------------------------------------------|
|---------------------------------------------------------------------|

|---------------------------------------------------|
|--12b(14)-10~--12-10-8-6-5-6-8-13-12-10-8b(10)~~~--|
|---------------------------------------------------|
|---------------------------------------------------|
|---------------------------------------------------|
|---------------------------------------------------|


|----------------------------------------------|
|----------------------------------------------|
|--/7b(9)~-5-12-10-9-7-7b(9)~--5-7-9-10-12-5~~-|
|----------------------------------------------|
|----------------------------------------------|
|----------------------------------------------|

|------------------------------------------|
|------------------------------------------|
|--5-7-9-7-5-7-4~--4-5-7-2~--2-4---6b(7)r--|
|--------------------------------2---------|
|------------------------------------------|
|------------------------------------------|

|-------------------------------|
|-------------------------------|
|--2-4-5-7-9-7~-9-10-9-7-9-5~---|
|-------------------------------|
|-------------------------------|
|-------------------------------|

|------------------------------------------|
|------------------------------------------|
|--5-7-9-7-5-7-4~--4-5-7-2~--2-4---6b(7)r--|
|--------------------------------2---------|
|------------------------------------------|
|------------------------------------------|

|-------------------------------|
|-------------------------------|
|--2-4-5-7-9-7~-9-10-9-7-9-5~---|
|-------------------------------|
|-------------------------------|
|-------------------------------|

------------------------------------------------------------------

Enjoy!!!!!!!

Almost there ...

Sign in to get your own page with links to favourite songs and more. You are just one click away...

Login with Facebook Login with Google