Log in

One click and you are in

Login with Facebook Login with Google

Why sign up and log in

Guitar Tabs Explorer
Pappo tabs for Blues local

Guitar tabs

fig.a)
1--------------|-------------|
2--------------|-------------|
3--------------|-------------|
4-----55-3---5-|----53-------|
5----------5---|------53--35-|
6-33-----------|-33------6---|

fig.b)
1--------------|---------------|
2--------------|---------------|
3----55-3---5--|----53---------|
4---------5----|-------53---35-|
5-33-----------|-33-------5----|
6--------------|---------------|

fig.c)
1--------------|---------------|
2--------------|---------------|
3-----77-5---5-|----53---------|
4----------5---|-------53---35-|
5-55-----------|-33-------5----|
6--------------|---------------|


A chord diagramA augmentedA A chord diagramA augmentedA A chord diagramBB A chord diagramA augmentedA A chord diagramC majorC A chord diagramA augmentedA

Almost there ...

Sign in to get your own page with links to favourite songs and more. You are just one click away...

Login with Facebook Login with Google