Log in

One click and you are in

Login with Facebook Login with Google

Why sign up and log in

Guitar Tabs Explorer
Pappo tabs for Banquero blues

Guitar tabs

e---------------------------------|
B---------------------------------|
G---------------------------------|
D-2--2-2-----2----2--2-2-----2----|
A-2--2-2----2-----2--2-2----2-----|
E-0--0-0-0-3--0-3-0--0-0-0-3--0-3-|
 PM PM           PM PM


Riff 2: Solo

e---------------------------------|
B---------------------------------|
G---------------------------------|
D-5--5-5-----5----5--5-5-----5----|
A-5--5-5----5-----5--5-5----5-----|
E-3--3-3-3-6--3-5-3--3-3-3-6--3-6-|
 PM PM           PM PM

Almost there ...

Sign in to get your own page with links to favourite songs and more. You are just one click away...

Login with Facebook Login with Google