Log in

One click and you are in

Login with Facebook Login with Google

Why sign up and log in

Guitar Tabs Explorer
Papa Roach tabs for Tyranny of normality

Guitar tabs

Papa Roach
Tyranny Of Normality

by Snazz
TUNING: Drop A chord diagramBB (Low to high: A chord diagramBB A chord diagramGbGb A chord diagramBB A chord diagramE MajorE A chord diagramAbAb A chord diagramDbDb)


Intro:
------
|-2---|
|-3---|
|-2---|
|-0---|
|-----|
|-----|

|----------------------------------------|
|----------------------------------------|
|----------------------------------------|
|-0--10-12--0---10-12--0-----------------|
|-0--10-12--0---10-12--0-----853035-\----|
|-0--10-12--0---10-12--0-----------------|

|----------------------------------------|
|----------------------------------------|
|----------------------------------------|
|-0--10-12--0---10-12--0-----33-0-5-0-3--|
|-0--10-12--0---10-12--0-----33-0-5-0-3--|
|-0--10-12--0---10-12--0-----33-0-5-0-3--|

|----------------------------------------|
|----------------------------------------|
|----------------------------------------|
|-0--10-12--0---10-12--0-----------------|
|-0--10-12--0---10-12--0-----853035-\----|
|-0--10-12--0---10-12--0-----------------|

|----------------------------------------|
|----------------------------------------|
|----------------------------77777777----|
|-0--10-12--0---10-12--0-----77777777----|
|-0--10-12--0---10-12--0-----55555555----|
|-0--10-12--0---10-12--0-----------------|


Verse:
------
|----------------------------|
|----------------------------|
|-xx77--10-9--xx77--10-9-5/7-|
|-xx77--10-9--xx77--10-9-5/7-| x3
|-xx55---8-7--xx55---8-7-3/5-|
|----------------------------|

|----------------------------|
|----------------------------|
|-xx77--10-9--xx77---7-------|
|-xx77--10-9--xx77---7-------|
|-xx55---8-7--xx55---5-------|
|----------------------------|


Chorus
------
|----------------------------------------|
|----------------------------------------|
|----------------------------------------|
|-0--10-12--0---10-12--0-----------------|
|-0--10-12--0---10-12--0-----853035-\----|
|-0--10-12--0---10-12--0-----------------|

|----------------------------------------|
|----------------------------------------|
|----------------------------------------|
|-0--10-12--0---10-12--0-----33-0-5-0-3--|
|-0--10-12--0---10-12--0-----33-0-5-0-3--|
|-0--10-12--0---10-12--0-----33-0-5-0-3--|

|----------------------------------------|
|----------------------------------------|
|----------------------------------------|
|-0--10-12--0---10-12--0-----------------|
|-0--10-12--0---10-12--0-----853035-\----|
|-0--10-12--0---10-12--0-----------------|

|----------------------------------------|
|----------------------------------------|
|----------------------------77777777----|
|-0--10-12--0---10-12--0-----77777777----|
|-0--10-12--0---10-12--0-----55555555----|
|-0--10-12--0---10-12--0-----------------|


Verse
-----
|----------------------------|
|----------------------------|
|-xx77--10-9--xx77--10-9-5/7-|
|-xx77--10-9--xx77--10-9-5/7-| x3
|-xx55---8-7--xx55---8-7-3/5-|
|----------------------------|

|----------------------------|
|----------------------------|
|-xx77--10-9--xx77---7-------|
|-xx77--10-9--xx77---7-------|
|-xx55---8-7--xx55---5-------|
|----------------------------|


Chorus
------
|----------------------------------------|
|----------------------------------------|
|----------------------------------------|
|-0--10-12--0-0-10-12--0-----------------|
|-0--10-12--0-0-10-12--0-----853035-\----|
|-0--10-12--0-0-10-12--0-----------------|

|----------------------------------------|
|----------------------------------------|
|----------------------------------------|
|-0--10-12--0---10-12--0-----33-0-5-0-3--|
|-0--10-12--0---10-12--0-----33-0-5-0-3--|
|-0--10-12--0---10-12--0-----33-0-5-0-3--|

|----------------------------------------|
|----------------------------------------|
|----------------------------------------|
|-0--10-12--0-0-10-12--0-----------------|
|-0--10-12--0-0-10-12--0-----853035-\----|
|-0--10-12--0-0-10-12--0-----------------|

|----------------------------------------|
|----------------------------------------|
|----------------------------------------|
|-0--10-12--0---10-12--0-----33-0-5-0-7--|
|-0--10-12--0---10-12--0-----33-0-5-0-7--|
|-0--10-12--0---10-12--0-----33-0-5-0-7--|


Bridge
------
|------------------------------------------------------------------------|
|------------------------------------------------------------------------|
|-10 (16 times)-9 (16 times)---------------------------------------------|
|--8 (16 times)-8 (16 times)-------------0--3-5--0---3-5--0--------------|
|----------------------------------------0--3-5--0---3-5--0--853035-\----|
|----------------------------------------0--3-5--0---3-5--0--------------|

|------------------------------------------------------------------------|
|------------------------------------------------------------------------|
|-10 (8 times)-9 (8 times)-7 (16 times)----------------------------------|
|--8 (8 times)-8 (8 times)-8 (16 times)--0--3-5--0---3-5--0--------------|
|----------------------------------------0--3-5--0---3-5--0--853035-\----|
|----------------------------------------0--3-5--0---3-5--0--------------|

|------------------------------------------------------------------------|
|------------------------------------------------------------------------|
|-10 (16 times)----------------------------------------------------------|
|--8 (16 times)-10 (16 times)------------0--3-5--0---3-5--0--------------|
|----------------8 (16 times)------------0--3-5--0---3-5--0--853035-\----|
|----------------------------------------0--3-5--0---3-5--0--------------|

|------------------------------------------------------------------------|
|------------------------------------------------------10 (16 times)-----|
|-10 (16 times)-9 (8 times)-7 (8 times)-10 (16 times)--10 (16 times)-----|
|--8 (16 times)-8 (8 times)-8 (8 times)--8 (16 times)---8 (16 times)-----|
|------------------------------------------------------------------------|
|------------------------------------------------------------------------|

|------------------------------------------------------------------------|
|------------------------------------------------------10 (16 times)-----|
|-10 (16 times)-9 (8 times)-7 (8 times)-10 (16 times)--10 (16 times)-----|
|--8 (16 times)-8 (8 times)-8 (8 times)--8 (16 times)---8 (16 times)-----|
|------------------------------------------------------------------------|
|------------------------------------------------------------------------|

|------------------------------------------------------------------------|
|---------------10 (16 times)----------------10--------------------------|
|-10 (16 times)-10 (16 times)--10 (16 times)-10--------------------------|
|--8 (16 times)--8 (16 times)---8 (16 times)--8--------------------------|
|------------------------------------------------------------------------|
|------------------------------------------------------------------------|


Chorus
|----------------------------------------|
|----------------------------------------|
|----------------------------------------|
|-0--10-12--0-0-10-12--0-----------------|
|-0--10-12--0-0-10-12--0-----853035-\----|
|-0--10-12--0-0-10-12--0-----------------|

|----------------------------------------|
|----------------------------------------|
|----------------------------------------|
|-0--10-12--0---10-12--0-----33-0-5-0-3--|
|-0--10-12--0---10-12--0-----33-0-5-0-3--|
|-0--10-12--0---10-12--0-----33-0-5-0-3--|

|----------------------------------------|
|----------------------------------------|
|----------------------------------------|
|-0--10-12--0-0-10-12--0-----------------|
|-0--10-12--0-0-10-12--0-----853035-\----|
|-0--10-12--0-0-10-12--0-----------------|

|----------------------------------------|
|----------------------------------------|
|----------------------------------------|
|-0--10-12--0---10-12--0-----33-0-5-0-3--|
|-0--10-12--0---10-12--0-----33-0-5-0-3--|
|-0--10-12--0---10-12--0-----33-0-5-0-3--|


Outro:
------
|----------------------------------------|
|----------------------------------------|
|----------------------------------------|
|-0--3-5--0---10-12--0-------------------|
|-0--3-5--0---10-12--0---853035-\--------|
|-0--3-5--0---10-12--0-------------------|

|----------------------------------------|
|----------------------------------------|
|----------------------------------------|
|-0--3-5--0---10-12--0---0-3-0-3---------|
|-0--3-5--0---10-12--0---0-3-0-3---------|
|-0--3-5--0---10-12--0---0-3-0-3---------|

Other versions of Tyranny Of Normality

Tyranny of normality (Ver. 2)Tabs

Almost there ...

Sign in to get your own page with links to favourite songs and more. You are just one click away...

Login with Facebook Login with Google