Log in

One click and you are in

Login with Facebook Login with Google

Why sign up and log in

Guitar Tabs Explorer
Papa Roach tabs for Hollywood whore

Guitar tabs

Tuning: Drop A chord diagramD MajorD

🏷Legend
-------
-------

b^ - bend up
bv - bend down
 - slide down
/ - slide up
h - hammer on
p - pull off

INTRO:

|---------3-----------------------------------------------------3------|
|----4-------------4----6-------4-----6---------6--4-------------------|
|-5-----5-------4----4-------3-----3---------5---------------4---------|
|-----------------------------------------6---------------5------------|
|----------------------------------------------------------------------|
|----------------------------------------------------------------------|

|-------------------------------------|-------------------------------------|
|-------------------------------------|-------------------------------------|
|-5-5---5h7-5h7-8-7-5h7-5h7-5h7-8-7-5-|-4-4---4h5-4h5-8-5-4h5-4h5-4h5-8-5-4-|
|-5-5---------------------------------|-4-4---------------------------------|
|-3-3---------------------------------|-2-2---------------------------------|
|-------------------------------------|-------------------------------------|

|-------------------------------------|-------------------------------------|
|-------------------------------------|-------------------------------------|
|-5-5---5h7-5h7-8-7-5h7-5h7-5h7-8-7-5-|-4-4---4h5-4h5-8-5-4h5-4h5-4h5-8-5-4-|
|-5-5---------------------------------|-4-4---------------------------------|
|-3-3---------------------------------|-2-2---------------------------------|
|-------------------------------------|-------------------------------------|


VERSE:

|--------------------|-------------------|
|--------------------|-------------------|
|-5-5------x-x--4-4--|---5-5--------4-4--|
|-5-5------x-x--4-4--|---5-5--------4-4--|
|-3-3------x-x--2-2--|---2-2--------2-2--|
|--------------------|-------------------|


|-------------------|-------------------|
|-------------------|-------------------|
|---5-5--------4-4--|---5-5--------4-4--|
|---5-5--------4-4--|---5-5--------4-4--|
|---3-3--------2-2--|---2-2--------2-2--|
|-------------------|-------------------|


PRE-CHORUS:

|---------------|---------------|-----------------------------|
|--------8b^----|---------------|-----------------------------|
|---------------|--------10bv---|-----------------------------|
|-6-6-----------|-6-6-----------|-5-5-------------------------|
|-6-6-----------|-6-6-----------|-5-5-5-5-5-5-6-6-6-6-8-8-8-8-|
|-6-6-----------|-6-6-----------|-5-5-------------------------|


CHORUS:

|----------------------------------------------------------|
|----------------------------------------------------------|
|-555555555555---------------------------------------------|
|-555555555555--555555555555--6666666666666--333333-555555-|
|-333333333333--555555555555--6666666666666--333333-555555-|
|---------------555555555555--6666666666666--333333-555555-|

|----------------------------------------------------------|
|----------------------------------------------------------|
|-555555555555---------------------------------------------|
|-555555555555--555555555555--6666666666666--333333-555555-|
|-333333333333--555555555555--6666666666666--333333-555555-|
|---------------555555555555--6666666666666--333333-555555-|


INTRO(AGAIN):

|-------------------------------------|-------------------------------------|
|-------------------------------------|-------------------------------------|
|-5-5---5-7-5-7-8-7-5-7-5-7-5-7-8-7-5-|-4-4---4-5-4-5-8-5-4-5-4-5-4-5-8-5-4-|
|-5-5---------------------------------|-4-4---------------------------------|
|-3-3---------------------------------|-2-2---------------------------------|
|-------------------------------------|-------------------------------------|

|-------------------------------------|-------------------------------------|
|-------------------------------------|-------------------------------------|
|-5-5---5-7-5-7-8-7-5-7-5-7-5-7-8-7-5-|-4-4---4-5-4-5-8-5-4-5-4-5-4-5-8-5-4-|
|-5-5---------------------------------|-4-4---------------------------------|
|-3-3---------------------------------|-2-2---------------------------------|
|-------------------------------------|-------------------------------------|


VERSE:

|--------------------|-------------------|
|--------------------|-------------------|
|-5-5------x-x--4-4--|---5-5--------4-4--|
|-5-5------x-x--4-4--|---5-5--------4-4--|
|-3-3------x-x--2-2--|---2-2--------2-2--|
|--------------------|-------------------|


|-------------------|-----------------------|
|-------------------|-----------------------|
|---5-5--------4-4--|---5-5--------4-4------|
|---5-5--------4-4--|---5-5--------4-4------|
|---3-3--------2-2--|---2-2--------2-2------|
|-------------------|--------------------1/15|


PRE-CHORUS:

|---------------|---------------|-----------------------------|
|--------8b^----|---------------|-----------------------------|
|---------------|--------10bv---|-----------------------------|
|-6-6-----------|-6-6-----------|-5-5-------------------------|
|-6-6-----------|-6-6-----------|-5-5-5-5-5-5-6-6-6-6-8-8-8-8-|
|-6-6-----------|-6-6-----------|-5-5-------------------------|


CHORUS:

|----------------------------------------------------------|
|----------------------------------------------------------|
|-555555555555---------------------------------------------|
|-555555555555--555555555555--6666666666666--333333-555555-|
|-333333333333--555555555555--6666666666666--333333-555555-|
|---------------555555555555--6666666666666--333333-555555-|

|----------------------------------------------------------|
|----------------------------------------------------------|
|-555555555555---------------------------------------------|
|-555555555555--555555555555--6666666666666--333333-555555-|
|-333333333333--555555555555--6666666666666--333333-555555-|
|---------------555555555555--6666666666666--333333-555555-|


INTERLUDE/BRIDGE:

|--------------------|--------------------|
|--------------------|--------------------|
|-88888888-----------|-88888888-----------|
|-88888888--55555555-|-88888888--55555555-|
|-66666666--55555555-|-66666666--55555555-|
|-----------55555555-|-----------55555555-|

|--------------------|--------------------|
|--------------------|--------------------|
|----------5555/3333-|----------5555/3333-|
|-66666666-5555/3333-|-66666666-5555/3333-|
|-66666666-3333/1111-|-66666666-3333/1111-|
|-66666666-----------|-66666666-----------|

|--------------------|
|--------------------|
|--------------------|
|-66666666-5555-3333-|
|-66666666-5555-3333-|
|-66666666-5555-3333-|

|---------3-----------------------------------------------------3------|
|----4-------------4----6-------4-----6---------6--4-------------------|
|-5-----5-------4----4-------3-----3---------5---------------4---------|
|-----------------------------------------6---------------5------------|
|----------------------------------------------------------------------|
|----------------------------------------------------------------------|

|---------3-----------------------------------------------------3------|
|----4-------------4----6-------4-----6---------6--4-------------------|
|-5-----5-------4----4-------3-----3---------5---------------4---------|
|-----------------------------------------6---------------5------------|
|----------------------------------------------------------------------|
|----------------------------------------------------------------------|

|---------3-----3------------------------------------------------------|
|----4------4-----4--------4---6--4---6--4------4---6--4---6--4--------|
|-5-----5-----5----------4---4------4---------3---3------3-------------|
|----------------------------------------------------------------------|
|----------------------------------------------------------------------|
|----------------------------------------------------------------------|


CHORUS:

|----------------------------------------------------------|
|----------------------------------------------------------|
|-555555555555---------------------------------------------|
|-555555555555--555555555555--6666666666666--333333-555555-|
|-333333333333--555555555555--6666666666666--333333-555555-|
|---------------555555555555--6666666666666--333333-555555-|

|----------------------------------------------------------|
|----------------------------------------------------------|
|-555555555555---------------------------------------------|
|-555555555555--555555555555--6666666666666--333333-555555-|
|-333333333333--555555555555--6666666666666--333333-555555-|
|---------------555555555555--6666666666666--333333-555555-|


OUTRO:

|--------------------------------------------------------------------|
|--------------------------------------------------------------------|
|-5-5-5-5-5-5-5-5----------------------------------------------------|
|-5-5-5-5-5-5-5-5--5-5-5-5-5-5-5-5--6-6-6-6-6-6-6-6--3-3-3-3-5-5-5-5-|
|-3-3-3-3-3-3-3-3--5-5-5-5-5-5-5-5--6-6-6-6-6-6-6-6--3-3-3-3-5-5-5-5-|
|------------------5-5-5-5-5-5-5-5--6-6-6-6-6-6-6-6--3-3-3-3-5-5-5-5-|

|---------------------------------------------------------------|
|---------------------------------------------------------------|
|-5-5-5-5-5-5-5-5-----------------------------------------------|
|-5-5-5-5-5-5-5-5--5-5-5-5-5-5-5-5--6-6-6-6-6-6-6-6--3--3--5--5-|
|-3-3-3-3-3-3-3-3--5-5-5-5-5-5-5-5--6-6-6-6-6-6-6-6--3--3--5--5-|
|------------------5-5-5-5-5-5-5-5--6-6-6-6-6-6-6-6--3--3--5--5-|

|-------------------------------------|-------------------------------------|
|-------------------------------------|-------------------------------------|
|-5-5---5h7-5h7-8-7-5h7-5h7-5h7-8-7-5-|-4-4---4h5-4h5-8-5-4h5-4h5-4h5-8-5-4-|
|-5-5---------------------------------|-4-4---------------------------------|
|-3-3---------------------------------|-2-2---------------------------------|
|-------------------------------------|-------------------------------------|

|-------------------------------------|------------------------------------------|
|-------------------------------------|------------------------------------------|
|-5-5---5h7-5h7-8-7-5h7-5h7-5h7-8-7-5-|-4-4---4h5-4h5-8-5-4h5-4h5-4h5-8-5-4--5-5-|
|-5-5---------------------------------|-4-4----------------------------------5-5-|
|-3-3---------------------------------|-2-2----------------------------------3-3-|
|-------------------------------------|------------------------------------------|

Other versions of Hollywood Whore

Hollywood whoreChords

Almost there ...

Sign in to get your own page with links to favourite songs and more. You are just one click away...

Login with Facebook Login with Google