Log in

One click and you are in

Login with Facebook Login with Google

Why sign up and log in

Guitar Tabs Explorer
Papa Roach tabs for Blackclouds

Guitar tabs

Album: Lovehatetragedy
Tabbed by: Colin Boylan

<<ORIGINAL>>
INTRO/VERSE  : Guitar 1
    A chord diagramA#A#                        A chord diagramF#F#
e|--------------------------------------------------
b|--------------------------------------------------
g|--------------------------------------------------
d|--8--------8--------8-------4---------------------
a|--8--------8--------8-------4---------------------
A chord diagramE MajorE|--8--------8--------8-------4---------------------


INTRO/VERSE  : Guitar 2  *Am shape but on fret 2*
    A chord diagramA#A#
e|-----------------4--------------------------------
b|----------2---------2-----4-----------------------
g|-----3-------3---------3-----3------- X3 ---------
d|--3-----3-------3--------------3------------------
a|--------------------------------------------------
A chord diagramE MajorE|--------------------------------------------------

    A chord diagramF#F# *F shape but on 2nd fret*
e|-------------------4-------------------------------
b|---------2------------2------4---------------------
g|----3-------3-------------3-----3------- X1 -------
d|--4---4--------4-------------------4--------------
a|--------------------------------------------------
A chord diagramE MajorE|--------------------------------------------------

After "rarely i see them"
e|--------------------------------------------------
b|--------------------------------------------------
g|--------------------------------------------------
d|--1---4----1----4---1---4-----1----4--------------
a|--1---4----1----4---1---4-----1----4--------------
A chord diagramE MajorE|--1---4----1----4---1---4-----1----4--------------

PRECHORUS  : "Black clouds they rain down..."
e|--------------------------------------------------
b|--------------------------------------------------
g|---------------------------------------------------
d|--1-1-1--3-3-3--4-4-4--6-6-6-6-6-6-----------------
a|--1-1-1--3-3-3--4-4-4--6-6-6-6-6-6---------------
A chord diagramE MajorE|--1-1-1--3-3-3--4-4-4--6-6-6-6-6-6---------------


CHORUS :
e|--------------------------------------------------
b|--------------------------------------------------
g|--------------------------------------------------
d|--6/8-8-8--1-1-1--4-4-4-4--1-1-1------------------
a|--6/8-8-8--1-1-1--4-4-4-4--1-1-1-----X4-----------
A chord diagramE MajorE|--6/8-8-8--1-1-1--4-4-4-4--1-1-1------------------

Thats all the parts done just repeat some of the
parts good song.comments complaints address ^

Colin

<<Edited>>

<<<DROP A chord diagramC majorC TUNING>>
There are two guitars in this song. i have done out both.


INTRO/VERSE  : Guitar 1
    A chord diagramA#A#                        A chord diagramF#F#
A chord diagramD MajorD|--------------------------------------------------
A chord diagramA augmentedA|--------------------------------------------------
A chord diagramFF|--------------------------------------------------
A chord diagramC majorC|-10-------3-------10-------6---------------------
A chord diagramG+G|-10-------3-------10-------6---------------------
A chord diagramC majorC|-10-------3-------10-------6---------------------


INTRO/VERSE  : Guitar 2  *Am shape but on fret 2*
    A chord diagramA#A#
A chord diagramD MajorD|-----------------6--------------------------------
A chord diagramA augmentedA|----------4---------4-----6-----------------------
A chord diagramFF|-----5-------5---------5-----5------- X3 ---------
A chord diagramC majorC|--5-----5-------5--------------5------------------
A chord diagramG+G|--------------------------------------------------
A chord diagramC majorC|--------------------------------------------------

    A chord diagramF#F# *F shape but on 2nd fret*
A chord diagramD MajorD|-------------------6-------------------------------
A chord diagramA augmentedA|---------4------------4------6---------------------
A chord diagramFF|----5-------5-------------5-----5------- X1 -------
A chord diagramC majorC|--6---6--------6-------------------6--------------
A chord diagramG+G|--------------------------------------------------
A chord diagramC majorC|--------------------------------------------------

After "rarely i see them"
A chord diagramD MajorD|--------------------------------------------------
A chord diagramA augmentedA|--------------------------------------------------
A chord diagramFF|--------------------------------------------------
A chord diagramC majorC|--3---6----3----6---3---6-----3----6--------------
A chord diagramG+G|--3---6----3----6---3---6-----3----6--------------
A chord diagramC majorC|--3---6----3----6---3---6-----3----6--------------


PRECHORUS  : "Black clouds they rain down..."
A chord diagramD MajorD|--------------------------------------------------
A chord diagramA augmentedA|--------------------------------------------------
A chord diagramFF|---------------------------------------------------
A chord diagramC majorC|--3-3-3--5-5-5--6-6-6--8-8-8-8-8-8-----------------
A chord diagramG+G|--3-3-3--5-5-5--6-6-6--8-8-8-8-8-8---------------
A chord diagramC majorC|--3-3-3--5-5-5--6-6-6--8-8-8-8-8-8---------------


CHORUS :
A chord diagramD MajorD|--------------------------------------------------
A chord diagramA augmentedA|--------------------------------------------------
A chord diagramFF|--------------------------------------------------
A chord diagramC majorC|--8/10-10-10--3-3-3--6-6-6-6--3-3-3------------------
A chord diagramG+G|--8/10-10-10--3-3-3--6-6-6-6--3-3-3-----X4-----------
A chord diagramC majorC|--8/10-10-10--3-3-3--6-6-6-6--3-3-3------------------
ⓘ Guitar tab for 'Blackclouds' by Papa Roach, a metal band formed in 1993 from California, USA. Papa Roach is known for their confrontational rock/pop music.

Almost there ...

Sign in to get your own page with links to favourite songs and more. You are just one click away...

Login with Facebook Login with Google