Log in

One click and you are in

Login with Facebook Login with Google

Why sign up and log in

Guitar Tabs Explorer
Pantera bass tabs for Yesterday dont mean shit

Yesterday Don't Mean Shit bass tab by Pantera

Pantera bass tabs for Yesterday dont mean shit

Bass tabs

  • Difficulty: Intermediate
Key: Dm


Intro:

F|-------------------|-------------------|
C|-------------------|-------------------|
G|-------------------|-------------------|
D|-------------------|-------------------|

F|-------------------|-------------------|
C|-------------------|-------------------|
G|-------------------|-------------------|
D|-------------------|--------------/6\--|
Pre


Verse :

  play 4x
F|---------------------------------|---------------------------------|
C|---------------------------------|---------------------------------|
G|---------------------------------|---------------------------------|
D|-0---0-0-6-0-3-0-0---0-0-6-0-3-0-|-0---0-0-6-0-3-0-0---0-0-1-0-4---|




Verse 1:

  play this part 3x
F|---------------------------------|---------------------------------|
C|---------------------------------|---------------------------------|
G|->------->------->----------->---|---------------------------------|
D|-5---5-5-5---5-5-5---5-5-5-5-6---|-----6-6-6---6-6-6---6-6-6\3-----|

F|---------------------------------|---------------------------------|
C|---------------------------------|---------------------------------|
G|---------------------------------|---------------------------------|
D|-0---0-0-6-0-3-0-0---0-0-6-0-3-0-|-0---0-0-6-0-3-0-0---0-0-1-0-4---|
  Verse Ending
F|---------------------------------|---------------------------------|
C|---------------------------------|---------------------------------|
G|->------->------->----------->---|---------------------------------|
D|-3---3-3-3---3-3-3---3-3-3-3-1---|-----1-1-1---1-1-1---1-1-3-------|

F|---------------------------------|---------------------------------|
C|---------------------------------|---------------------------------|
G|---------------------------------|---------------------------------|
D|-0---0-0-6-0-3-0-0---0-0-6-0-3-0-|-0---0-0-6-0-3-0-0---0-0-1-0-4---|

F|---------------------------------|---------------------------------|
C|---------------------------------|---------------------------------|
G|---------------------------------|---------------------3---5---7---|
D|-0---0-0-6-0-3-0-0---0-0-6-0-3-0-|-12\-----------------------------|



Chorus:

  play line 3x
F|---------------------------|-------------------------------|
C|---------------------------|-------------------------------|
G|-(7)--5h7----------------5h|-h7----------------8---8---7---|
D|------------0---3h5---0----|-----0---5h7---0---------------|


 continue
F|---------------------------|-------------------------------|
C|---------------------------|-------------------------------|
G|-(7)--5h7----------------5h|-h7----------------5---5---4---|
D|------------0---3h5---0----|-----0---5h7---0---------------|

F|---------------------------|-------------------------------|
C|---------------------------|-------------------------------|
G|-(4)--3h4----------------3h|-h4----------------5---5---4---|
D|------------0---1h2---0----|-----0---1h2---0---------------|

F|---------------------------|-------------------------------|
C|---------------------------|-------------------------------|
G|-(4)--3h4----------------3h|-h4----------------3---5---7---|
D|------------0---1h2---0----|-----0---1h2---0---------------|

F|---------------------------|-------------------------------|
C|---------------------------|-------------------------------|
G|-(7)--5h7----------------5h|-h7----------------8---8---7---|
D|------------0---3h5---0----|-----0---5h7---0---------------|

F|---------------------------|--------------------------|
C|---------------------------|--------------------------|
G|-(7)--5h7----------------5h|-h7\----------------------|
D|------------0---3h5---0----|--------------------------|


Pre


Verse :

  play 4x
F|---------------------------------|---------------------------------|
C|---------------------------------|---------------------------------|
G|---------------------------------|---------------------------------|
D|-0---0-0-6-0-3-0-0---0-0-6-0-3-0-|-0---0-0-6-0-3-0-0---0-0-1-0-4---|


Verse 2:

  play this part 3x
F|---------------------------------|---------------------------------|
C|---------------------------------|---------------------------------|
G|->------->------->----------->---|---------------------------------|
D|-5---5-5-5---5-5-5---5-5-5-5-6---|-----6-6-6---6-6-6---6-6-6\3-----|

F|---------------------------------|---------------------------------|
C|---------------------------------|---------------------------------|
G|---------------------------------|---------------------------------|
D|-0---0-0-6-0-3-0-0---0-0-6-0-3-0-|-0---0-0-6-0-3-0-0---0-0-1-0-4---|


  Verse Ending
F|---------------------------------|---------------------------------|
C|---------------------------------|---------------------------------|
G|->------->------->----------->---|---------------------------------|
D|-3---3-3-3---3-3-3---3-3-3-3-1---|-----1-1-1---1-1-1---1-1-3-------|

F|---------------------------------|---------------------------------|
C|---------------------------------|---------------------------------|
G|---------------------------------|---------------------------------|
D|-0---0-0-6-0-3-0-0---0-0-6-0-3-0-|-0---0-0-6-0-3-0-0---0-0-1-0-4---|

F|---------------------------------|---------------------------------|
C|---------------------------------|---------------------------------|
G|---------------------------------|---------------------3---5---7---|
D|-0---0-0-6-0-3-0-0---0-0-6-0-3-0-|-12\-----------------------------|



Chorus 2:

  play line 3x
F|---------------------------|-------------------------------|
C|---------------------------|-------------------------------|
G|-(7)--5h7----------------5h|-h7----------------8---8---7---|
D|------------0---3h5---0----|-----0---5h7---0---------------|


 continue
F|---------------------------|-------------------------------|
C|---------------------------|-------------------------------|
G|-(7)--5h7----------------5h|-h7----------------5---5---4---|
D|------------0---3h5---0----|-----0---5h7---0---------------|

F|---------------------------|-------------------------------|
C|---------------------------|-------------------------------|
G|-(4)--3h4----------------3h|-h4----------------5---5---4---|
D|------------0---1h2---0----|-----0---1h2---0---------------|

F|---------------------------|-------------------------------|
C|---------------------------|-------------------------------|
G|-(4)--3h4----------------3h|-h4----------------3---5---7---|
D|------------0---1h2---0----|-----0---1h2---0---------------|

F|---------------------------|-------------------------------|
C|---------------------------|-------------------------------|
G|-(7)--5h7----------------5h|-h7----------------8---8---7---|
D|------------0---3h5---0----|-----0---5h7---0---------------|

F|---------------------------|--------------------------|
C|---------------------------|--------------------------|
G|-(7)--5h7----------------5h|-h7\----------------------|
D|------------0---3h5---0----|--------------------------|



Bridge:

F|----------------------------------|---------------------------------|
C|----------------------------------|---------------------------------|
G|----------------------------------|---------------------------------|
D|-12---0-0-0--11---0--10---0---9---|-0---0---8-8-0---7-7-0---6-6-0---|

F|----------------------------------|---------------------------------|
C|----------------------------------|---------------------------------|
G|----------------------------------|---------------------------------|
D|-5--------------------------------|-3b5r3---------------------------|

F|----------------------------------|---------------------------------|
C|----------------------------------|---------------------------------|
G|----------------------------------|---------------------------------|
D|-12---0-0-0--11---0--10---0---9---|-0---0---8-8-0---7-7-0---6-6-0---|

F|----------------------------------|------------------------------------|
C|----------------------------------|------------------------------------|
G|----------------------------------|------------------------------------|
D|-5--------------------------------|-5--5--5--5--5--5--4--4--3--3--1--1-|
                   triplets

F|----------------------------------|---------------------------------|
C|----------------------------------|---------------------------------|
G|----------------------------------|---------------------------------|
D|-12---0-0-0--11---0--10---0---9---|-0---0---8-8-0---7-7-0---6-6-0---|

F|----------------------------------|---------------------------------|
C|----------------------------------|---------------------------------|
G|----------------------------------|---------------------------------|
D|-5----------------------------0---|-3/5-----5---5---5/8-----8---8---|

F|----------------------------------|---------------------------------|
C|----------------------------------|---------------------------------|
G|----------------------------------|---------------------------------|
D|-12---0-0-0--11---0--10---0---9---|-0---0---8-8-0---7-7-0---6-6-0---|

F|----------------------------------|---------------------------------|
C|----------------------------------|---------------------------------|
G|----------------------------------|---------------------------------|
D|-5--------------------------------|-3b------3b------3b--------------|


  Bridg Ending: play line 3x
F|----------------------------------|---------------------------------|
C|----------------------------------|---------------------------------|
G|----------------------------------|---------------------------------|
D|-12---0-0-0--11---0--10---0---9---|-0---0---8-8-0---7-7-0---6-6-0---|

  continue
F|----------------------------------|---------------------------------|
C|----------------------------------|---------------------------------|
G|----------------------------------|---------------------------------|
D|-12---0-0-0--11---0--10---0---9---|-0---0---8-8-0---7-7-0---6-6-0---|

F|---------------------------------------------|---------------------------------|
C|---------------------------------------------|---------------------------------|
G|---------------------------------------------|---------------------------------|
D|-12-12-12-12-11-11-11-11-10-10-10-10-9-9-9-9-|-8-8-8-8-7-7-7-7-6-6-6-6-5-5-5-5-|


Guitar Solo:

F|---------------------------------|---------------------------------|
C|---------------------------------|-------------------------2---2h4-|
G|---------------------------------|---------------------------------|
D|-2-2-2-2-2---2---2-2-2-2-2---2---|-0h2-2-2-2---2---0h2-2-2---------|

F|---------------------------------|---------------------------------|
C|---------------------------------|---------------------------------|
G|---------------------------------|---------------------------------|
D|-0h2-2-2-2---2---5p2-2-2-2---2---|-0h2-2-2-2---2---2---7---8---9---|

F|---------------------------------|-----------------------------------------|
C|---------------------------------|-9h11-11-11-11---11---11-11-9-9----------|
G|---------------------------------|-------------------------------11-11-9-9-|
D|-(9)-9-9-9---9---7h9-9-9-9---9---|-----------------------------------------|

F|---------------------------------|---------------------------------|
C|---------------------------------|---------------------------------|
G|---------------------------------|---------------------------------|
D|-9-9-9-9-9---9---7h9-9-9-9---9---|-9-9-9-9-9-9-9-9-9---0---1---2---|

F|---------------------------------|---------------------------------|
C|---------------------------------|-------------------------2---2h4-|
G|---------------------------------|---------------------------------|
D|-2-2-2-2-2---2---2-2-2-2-2---2---|-0h2-2-2-2---2---0h2-2-2---------|

F|---------------------------------|---------------------------------|
C|---------------------------------|---------------------------------|
G|---------------------------------|---------------------------------|
D|-0h2-2-2-2---2---5p2-2-2-2---2---|-0h2-2-2-2---2--/7---7---8---9---|

F|---------------------------------|-----------------------------------------|
C|---------------------------------|-9h11-11-11-11---11---11-11-9-9----------|
G|---------------------------------|-------------------------------11-11-9-9-|
D|-(9)-9-9-9---9---7h9-9-9-9---9---|-----------------------------------------|

F|---------------------------------|---------------------------------|
C|---------------------------------|---------------------------------|
G|---------------------------------|---------------------3---5---7---|
D|-9-9-9-9-9---9---7h9-9-9-9---9---|-9-9-9-9-9-9-9-9-9---------------|


Last Chorus:

  play line 3x
F|---------------------------|-------------------------------|
C|---------------------------|-------------------------------|
G|-(7)--5h7----------------5h|-h7----------------8---8---7---|
D|------------0---3h5---0----|-----0---5h7---0---------------|


 continue
F|---------------------------|-------------------------------|
C|---------------------------|-------------------------------|
G|-(7)--5h7----------------5h|-h7----------------5---5---4---|
D|------------0---3h5---0----|-----0---5h7---0---------------|

F|---------------------------|-------------------------------|
C|---------------------------|-------------------------------|
G|-(4)--3h4----------------3h|-h4----------------5---5---4---|
D|------------0---1h2---0----|-----0---1h2---0---------------|

F|---------------------------|-------------------------------|
C|---------------------------|-------------------------------|
G|-(4)--3h4----------------3h|-h4----------------3---5---7---|
D|------------0---1h2---0----|-----0---1h2---0---------------|

F|---------------------------|-------------------------------|
C|---------------------------|-------------------------------|
G|-(7)--5h7----------------5h|-h7----------------8---8---7---|
D|------------0---3h5---0----|-----0---5h7---0---------------|

F|---------------------------|--------------------------|
C|---------------------------|--------------------------|
G|-(7)--5h7----------------5h|-h7-----------------------|
D|------------0---3h5---0----|--------------------------|


Outro:

  play 3x
F|---------------------------------|---------------------------------|
C|---------------------------------|---------------------------------|
G|---------------------------------|---------------------------------|
D|-0---0-0-6-0-3-0-0---0-0-6-0-3-0-|-0---0-0-6-0-3-0-0---0-0-1-0-4---|

  continue
F|---------------------------------|---------------------------------|
C|---------------------------------|---------------------------------|
G|---------------------------------|---------------------------------|
D|-0---0-0-6-0-3-0-0---0-0-6-0-3-0-|-0---0-0-6-0-3-0-0---0-0-1-0-4---|

F|----------------------------------|---------------------------------|
C|----------------------------------|---------------------------------|
G|----------------------------------|---------------------------------|
D|-12---0-0-0--11---0--10---0---9---|-0---0---8-8-0---7-7-0---6-6-0---|

F|---------------------------------|---------------------------------|--------|
C|---------------------------------|---------------------------------|--------|
G|---------------------------------|---------------------------------|--------|
D|-5---0-0-0-0-4---0-0-3---0-0-2---|---1-----1-----1-----1-----1-----|--0-----|


************************************

| x  Dead note
| h  Hammer-on
| p  Pull-off
| r  Release
| >  Accented note
| b  Bend
| br Bend release
| /  Slide up
| \  Slide down
| ~  Vibrato
| PM Palm mute

************************************
pantera yesterday dont mean shit music video
ⓘ Bass guitar tab for 'Yesterday Dont Mean Shit' by Pantera, a thrash metal band formed in 1982 from Arlington, Texas, USA. They retired in 2003. Pantera was known for their confrontational metal music.

Almost there ...

Sign in to get your own page with links to favourite songs and more. You are just one click away...

Login with Facebook Login with Google