Log in

One click and you are in

Login with Facebook Login with Google

Why sign up and log in

Guitar Tabs Explorer
Pantera bass tabs for Walk

Bass tabs with lyrics

WALK - PANTERA
                 --------------

 Note lengths are written below the measures :
  w - whole note
  h - half note
  q - quarter note
  e - eight note
  s - sixteenth note
  t - thirty-second note

 Rest are noted as capitalized note lengths ie:
  W - whole rest
  H - half rest
  Q - quarter rest
  E - eight rest
  S - sixteenth rest
  T - thirty-second rest

 + is used to show slurs between notes, eg slide up from 5 to 7 without
 picking the 7 would be notated like :
  |---5/7----
    e+e
  sliding up with picking the 7 would be notated like :
  |---5/7----
    e e

 Notes without a note length are cue notes.


 h - hammer on
 p - pull off
 b - bend (amount of bend above the measure)
 r - release bend
 x - muffled string
 / - slide up
 \ - slide down
 ~ - vibrato (vib. above a measure means a more exaggerated vibrato)

             WALK - PANTERA  BASS
             ---------------------

Swing feel (ie: e e = q  e)
            { 3 }

Drop D Tuning (D,A,D,G)

|-----|-----|-------------------------|---------------------|
|-----|-----|-------------------------|---------------------|
|-----|-----|-------------------------|------------------x\-|
|-----|-----|-0-0-0-0-0-0-0-0-0-0-0-0-|-0-0-0-0-0-0---x\----|
  W   W  e e e e e e e e e e e e  e e e e e e e q q
       { 3 } { 3 } { 3 } { 3 }  { 3 } { 3 } {3}

|-----------------------|---------------------|-----|-------------------||
|-----------------------|---------------------|--%--|-------------------||
|-----------------------|---------------------|-----|----------------x\-||
|-0---0-2-1-0---0-2-1-0-|---0-2-1-0---0-2-1-0-|-----|---0-2-1-0---x\----||
 e E e e e e E e e e e  E e e e e E e e e e     E e e e e E q q
 { 3 } { 3 }   { 3 }    { 3 }   { 3 }       { 3 } {3}

||--------------------|-------------------|-------------------|
||o-------------------|-------------------|-------------------|
||o-----------------1-|-------------------|-----------------4-|
||--0---0-2-1-0---0---|-0---0-2-1-0---0-6-|-0---0-2-1-0---0---|
  e E e e e e E e q  e E e e e e E e q  e E e e e e E e q
  { 3 } { 3 }     { 3 } { 3 }     { 3 } { 3 }

             2x
|--------------------------||-------------------------||
|-------------------------o||-------------------------||
|-------------------------o||-------------------------||
|-0-0-0-1-0-3-0-4-0-3-0-1--||-0-0-0-1-0-3-0-4-0-3-0-1-||
 e e e e e e e e e e e e   e e e e e e e e e e e e
 { 3 } { 3 } { 3 } { 3 }   { 3 } { 3 } { 3 } { 3 }

  verse 1                               2x
||------------------------|---------------------|-----|------------------||
||o-----------------------|---------------------|-----|-----------------o||
||o-----------------------|---------------------|--%--|-------------4-4-o||
||--0---0-2-1-0---0-2-1-0-|---0-2-1-0---0-2-1-0-|-----|---0-2-1-0--------||
  e E e e e e E e e e e  E e e e e E e e e e     E e e e e E e q
  { 3 } { 3 }   { 3 }    { 3 }   { 3 }       { 3 }

  pre-chorus                         2x
||-----|--------|-----------------------|----------------------||
||o----|--------|-----------------------|---------------------o||
||o-3--|--------|-----------------------|---------------------o||
||-----|--6--7--|-0---0-2-1-0---0-2-1-0-|---0-2-1-0---0-2-1-0--||
  w   h h  e E e e e e E e e e e  E e e e e E e e e e
         { 3 } { 3 }   { 3 }    { 3 }   { 3 }

|---------|---------|---------|----------------||
|---------|---------|---------|----------------||
|--3------|---------|---------|----------------||
|---------|--6------|--3------|--2------1------||
  w     w     w     h   h

 chorus
||--------------------|-------------------|-------------------|
||o-------------------|-------------------|-------------------|
||o-----------------1-|-------------------|-----------------4-|
||--0---0-2-1-0---0---|-0---0-2-1-0---0-6-|-0---0-2-1-0---0---|
  e E e e e e E e q  e E e e e e E e q  e E e e e e E e q
  { 3 } { 3 }     { 3 } { 3 }     { 3 } { 3 }

             2x
|--------------------------||-------------------------||
|-------------------------o||-------------------------||
|-------------------------o||-------------------------||
|-0-0-0-1-0-3-0-4-0-3-0-1--||-0-0-0-1-0-3-0-4-0-3-0-1-||
 e e e e e e e e e e e e   e e e e e e e e e e e e
 { 3 } { 3 } { 3 } { 3 }   { 3 } { 3 } { 3 } { 3 }

|-----------------------|---------------------|-----|-------------------||
|-----------------------|---------------------|--%--|-------------------||
|-----------------------|---------------------|-----|----------------x\-||
|-0---0-2-1-0---0-2-1-0-|---0-2-1-0---0-2-1-0-|-----|---0-2-1-0---x\----||
 e E e e e e E e e e e  E e e e e E e e e e     E e e e e E q q
 { 3 } { 3 }   { 3 }    { 3 }   { 3 }       { 3 } {3}

  verse 2                               2x
||------------------------|---------------------|-----|------------------||
||o-----------------------|---------------------|-----|-----------------o||
||o-----------------------|---------------------|--%--|-------------4-4-o||
||--0---0-2-1-0---0-2-1-0-|---0-2-1-0---0-2-1-0-|-----|---0-2-1-0--------||
  e E e e e e E e e e e  E e e e e E e e e e     E e e e e E e q
  { 3 } { 3 }   { 3 }    { 3 }   { 3 }       { 3 }

  pre-chorus                         2x
||-----|--------|-----------------------|----------------------||
||o----|--------|-----------------------|---------------------o||
||o-3--|--------|-----------------------|---------------------o||
||-----|--6--7--|-0---0-2-1-0---0-2-1-0-|---0-2-1-0---0-2-1-0--||
  w   h h  e E e e e e E e e e e  E e e e e E e e e e
         { 3 } { 3 }   { 3 }    { 3 }   { 3 }

|---------|---------|---------|----------------||
|---------|---------|---------|----------------||
|--3------|---------|---------|----------------||
|---------|--6------|--3------|--2------1------||
  w     w     w     h   h

 chorus
||--------------------|-------------------|-------------------|
||o-------------------|-------------------|-------------------|
||o-----------------1-|-------------------|-----------------4-|
||--0---0-2-1-0---0---|-0---0-2-1-0---0-6-|-0---0-2-1-0---0---|
  e E e e e e E e q  e E e e e e E e q  e E e e e e E e q
  { 3 } { 3 }     { 3 } { 3 }     { 3 } { 3 }

             4x
|--------------------------||-------------------------|-----|-----||
|-------------------------o||-------------------------|-----|-----||
|-------------------------o||-------------------------|--%--|--%--||
|-0-0-0-1-0-3-0-4-0-3-0-1--||-0-0-0-1-0-3-0-4-0-3-0-1-|-----|-----||
 e e e e e e e e e e e e   e e e e e e e e e e e e
 { 3 } { 3 } { 3 } { 3 }   { 3 } { 3 } { 3 } { 3 }

 guitar solo
|-------------------------|--------------------|-------------------------|
|-------------------------|--------------------|-------------------------|
|-------------------------|-----------------/x-|-------------------------|
|-0-0-0-1-0-3-0-0-0-1-0-3-|-0-0-0-1-0-0-3-2----|-0-0-0-1-0-3-0-0-0-1-0-3-|
 e e e e e e e e e e e e  e e e e e e q q q  e e e e e e e e e e e e
 { 3 } { 3 } { 3 } { 3 }  { 3 } { 3 } { 3 }  { 3 } { 3 } { 3 } { 3 }

|-------------------------|-------------------------|--------------------|
|-------------------------|-------------------------|--------------------|
|-------------5-3-0-0-----|-------------------------|-----------------/x-|
|-0-0-0-3-0-0---------5-3-|-0-0-0-0-3-3-0-0-0-0-3-3-|-0-0-0-0-0-0-3-2----|
 e e e e e e e e e e e e  e e e e e e e e e e e e  e e e e e e q q q
 { 3 } { 3 } { 3 } { 3 }  { 3 } { 3 } { 3 } { 3 }  { 3 } { 3 } { 3 }

|-------------------------|-------------------------|
|-------------------------|-------------------------|
|-------------------------|-------------5-5-5-5-5-5-|
|-0-0-0-0-3-3-0-0-0-0-3-3-|-0-0-0-0-0-0-------------|
 e e e e e e e e e e e e  e e e e e e e e e e e e
 { 3 } { 3 } { 3 } { 3 }  { 3 } { 3 } { 3 } { 3 }

|-------------------------|--------------------|-------------------------|
|-------------------------|--------------------|-------------------------|
|-------------------------|-----------------/x-|-------------------------|
|-5-5-5-5-5-5-5-8-5-8-5-7-|-5-5-5-5-5-5-8-5----|-5-5-5-5-5-5-5-8-5-8-5-7-|
 e e e e e e e e e e e e  e e e e e e q q q  e e e e e e e e e e e e
 { 3 } { 3 } { 3 } { 3 }  { 3 } { 3 } { 3 }  { 3 } { 3 } { 3 } { 3 }

|------------------------------|--------------------------------|-------------------|
|-------------5-5-5-5-5-5-|---------------------------------|-------------------|
|------------------------------|---0-0-3-0-0---0-0-3-0-0-|---0-0-3-0-0-1-0-0-|
|-5-5-5-5-5-5-------------|-5-----------5------------------|-5-----------------|
 e e e e e e e e e e e e  e e e e e e e e e e e e  e e e e e e q q q
 { 3 } { 3 } { 3 } { 3 }  { 3 } { 3 } { 3 } { 3 }  { 3 } { 3 } { 3 }

|---------------------------------|-------------2-2-2-2-2-2-|--------||
|---------------------------------|-----------------------------|--------||
|---0-0-3-0-0---0-0-3-0-0-|---0-0-0-0-0--------------|--------||
|-5-----------5-----------------|-5---------------------------|-0------||
 e e e e e e e e e e e e  e e e e e e e e e e e e  w
 { 3 } { 3 } { 3 } { 3 }  { 3 } { 3 } { 3 } { 3 }

|-----|-----|-------------------------|---------------------||
|-----|-----|-------------------------|---------------------||
|-----|-----|-------------------------|------------------x\-||
|-----|-----|-0-0-0-0-0-0-0-0-0-0-0-0-|-0-0-0-0-0-0---x\----||
  W   W  e e e e e e e e e e e e  e e e e e e e q q
       { 3 } { 3 } { 3 } { 3 }  { 3 } { 3 } {3}

 chorus
||--------------------|-------------------|-------------------|
||o-------------------|-------------------|-------------------|
||o-----------------1-|-------------------|-----------------4-|
||--0---0-2-1-0---0---|-0---0-2-1-0---0-6-|-0---0-2-1-0---0---|
  e E e e e e E e q  e E e e e e E e q  e E e e e e E e q
  { 3 } { 3 }     { 3 } { 3 }     { 3 } { 3 }

             4x
|--------------------------||-------------------------||
|-------------------------o||-------------------------||
|-------------------------o||-------------------------||
|-0-0-0-1-0-3-0-4-0-3-0-1--||-0-0-0-1-0-3-0-4-0-3-0-1-||
 e e e e e e e e e e e e   e e e e e e e e e e e e
 { 3 } { 3 } { 3 } { 3 }   { 3 } { 3 } { 3 } { 3 }

 outro          repeat & fade
||-----------------------||
||o---------------------o||
||o---------------------o||
||--0-0-0-1-0-0-0-0-1-0--||
  e e e e e e e e e e
  { 3 }   { 3 }

Almost there ...

Sign in to get your own page with links to favourite songs and more. You are just one click away...

Login with Facebook Login with Google