Log in

One click and you are in

Login with Facebook Login with Google

Why sign up and log in

Guitar Tabs Explorer
Pantera tabs for This love

Guitar tabs with lyrics

Title: This Love
Album: Vulger Display of Power
Words and Music by: Pantera
Publisher: Atlanitc Recording Corporation (Time Warner)
Tune down 1/2 step (A chord diagramEb MajorEb A chord diagramBb majorBb A chord diagramGbGb A chord diagramDbDb A chord diagramAbAb A chord diagramEb MajorEb)

Explanation of Tab:
A chord diagramA augmentedA 4X over a measure means to play that measure 4 times, 2X means two
     times, etc...
|..3..| is a triplet.
"Double Time" means to play that part twice as fast as normal
"Half Time" means to play that part half as fast as normal
Numbers under a section represent the downbeats in that measure
Two "."  that replace two "-" signify the beginning and end of a
     repeated section.
Parenthesis () indicate the end of a held note/chord




Intro/Verse
For the Intro, play only the 2nd ending.


   4X                2X                2X                1X
|-----------------|-----------------|-----------------|-----------------|
|-----------------|-----------------|-----------------|.----------------|
|-----------------|-----2-----2-----|-----------------|-----0-----0-----|
|-----2-----2-----|---4-----4---4---|-----2-----2-----|---2-----2---2---|
|---4-----4---4---|-2-----3-------3-|---4-----4---4---|.4-----3-------3-|
|-2-----3-------3-|-----------------|-2-----3-------3-|-----------------|

   2X             |..1st ending.1X..|..2nd ending.1X..|
|-----------------|-----------------|-----------------|
|-----------------|----------------.|-----------------|
|-----2-----0-----|-----------------|-----------------|
|---2-----2---2---|-----0-----2-----|-----0-2------(2)|
|-4-----3-------3-|---2-----3---3--.|---2---3------(3)|
|-----------------|-4-----5-------5-|-4-----5------(5)|


Pre-Chorus
   4X
|-----------------|
|-----------------|
|-----------------|
|-----2-----2-----|
|---4-----4---4---|
|-2-----3-------3-|



Chorus

   2X                     |..3..|                           |..3..|
|---------------------------------|---------------------------------|
|---------------------------------|---------------------------------|
|---------------------------------|---------------------------------|
|---------------------------------|---------------------------------|
|---4---4---4---44--4---4-6--5--1-|---4-------4-------4-----6--5--1-|
|-0-2---2-0-2---220-2---2-8--7--3-|-0-2-----0-2-----0-2-----8--7--3-|
  1       2       3       4         1       2       3       4


Bridge 1
|---------------------------------|---------------------------------|
|---------------------------------|---------------------------------|
|---------------------------------|---------------------------------|
|-------------4-------------------|-------------4-------------------|
|-------4-------4-----------------|-------4-------4---------5----(5)|
|-0-2-2---2-2-----5-2-3-4-5-0-2-3-|-0-2-2---2-2-----5-2-3-4-3----(3)|

                                                    |..3..| |..3..|
|---------------------------------|---------------------------------|
|---------------------------------|---------------------------------|
|---------------------------------|---------------------------------|
|-------------4-------------------|-------------4-------------------|
|-------4-------4-----------------|-------4-------4-3--4--5-6--7--8-|
|-0-2-2---2-2-----5-2-3-4-5-0-2-3-|-0-2-2---2-2-----1--2--3-4--5--6-|


Bridge 2
|--------------------------------------------|
|--------------------------------------------|
|--------------------------------------------|
|--------------------------------------------|
|---4---4---4---4---5---4---4---4---5---4-(4)|
|-0-2-0-2-0-2-0-2-0-3-0-2-0-2-0-2-0-3-0-2-(2)|


That's it for the different parts of the song, now for the order.


Intro

Verse

Pre-Chorus

Chorus

Verse

Pre-Chorus

Chorus

Bridge 1

Pre-Chorus

Verse/Solo

Chorus

Bridge 2 (Double Time)
Brigge 2 (Half Time)
Fade Out w/ verse


I don't know the solo or any of the high parts in the Pre-Chorus.  If you
do, post 'em or e-mail to me and I'll post 'em, and give whatever kind
soul tabs them out all the credit he or she deserves.

Almost there ...

Sign in to get your own page with links to favourite songs and more. You are just one click away...

Login with Facebook Login with Google