Log in

One click and you are in

Login with Facebook Login with Google

Why sign up and log in

Guitar Tabs Explorer
Pantera bass tabs for This love

Bass tabs with lyrics

Here's the guitar and bass tab for 'This love'.
Again all tabs come from a magazine and a book. A few little corrections to
the bass tab were made by me.

---------------------------------------------------------------------------

               THIS LOVE - PANTERA
               -------------------

 Note lengths are written below the measures :
  w - whole note
  h - half note
  q - quarter note
  e - eight note
  s - sixteenth note
  t - thirty-second note

 Rest are noted as capitalized note lengths ie:
  W - whole rest
  H - half rest
  Q - quarter rest
  E - eight rest
  S - sixteenth rest
  T - thirty-second rest

 + is used to show slurs between notes, eg slide up from 5 to 7 without
 picking the 7 would be notated like :
  |---5/7----
    e+e
  sliding up with picking the 7 would be notated like :
  |---5/7----
    e e

 Notes without a note length are cue notes.

 h - hammer on
 p - pull off
 b - bend (amount of bend above the measure)
 r - release bend
 x - muffled string
 / - slide up
 \ - slide down
 ~ - vibrato (vib. above a measure means a more exaggerated vibrato)


          THIS LOVE - PANTERA BASS
          -------------------------

Tune to Eb (Eb,Ab,Db,Gb)

102 bpm

intro
            2x
||------------|----------||---------|--------|---------|--------|---------|
||-o----------|--------o-||---------|--------|---------|--------|---------|
||-o----------|--------o-||-2--3----|-2--3---|---------|--------|-4--3--3-|
||----2--3--3-|-2--3-----||-------2-|--------|-2--3--0-|-2--3---|---------|
   q. h e  q. e+h   q. h e  q. e+h  q. h e  q. e+h  q. h e

|-------------|-------------|--------|-----||
|---------5---|---------5---|--------|-----||
|-4-0-4-3---3-|-4-0-4-3---3-|--------|-----||
|-------------|-------------|-4--5---|-(5)-||
 e e e q q e  e e e q q e  q. e+h + w

 verse 1
|---------|----------|---------|----------|---------|-----------|---------|
|---------|----------|---------|----------|---------|-----------|---------|
|---------|------2---|---------|------2---|-2--3----|-2---2-3---|---------|
|-2--3--0-|-2--3---3-|-2--3--0-|-2--3---3-|-------2-|---2-------|-2--3--0-|
 q. h e  q. q q e  q. h e  q. q q e  q. h e  e e e e+h  q. h e

|------------|---------|-------------|-------------|--------|---------|
|------------|---------|---------5---|---------5---|--------|---------|
|---2-4------|-4--3--3-|-4-0-4-3---3-|-4-0-4-3---3-|--------|-4--3--3-|
|-2-----3--3-|---------|-------------|-------------|-4--5---|---------|
 e e e h e  q. h e  e e e q q e  e e e q q e  q. e+h  q. h e

                    2/4
|-------------|-------------|-----------|-----||
|---------5---|---------5---|-----------|-----||
|-4-0-4-3---3-|-4-0-4-3---3-|-----------|-----||
|-------------|-------------|-4-4-4-5---|-(5)-||
 e e e q q e  e e e q q e  e e e e+h + w

4/4             2x chorus                 4x
||-----------|----------------|||-------------------|--------------------||
||-o---------|--------------o-|||-o-----------------|------------------o-||
||-o---------|-----4---2----o-|||-o-----------------|---------3--2-----o-||
||---2--3--0-|-2-5---3---3----|||---0-2-----0-2-----|-0-2-----------3----||
   q. h e  e e e q q e     s s E Q s s E Q  s s E Q e. e. e

|---------|---------|---------|------------||
|---------|---------|---------|------------||
|---------|---------|---------|-----4------||
|-2--3--3-|-2--3--3-|-2--3--3-|-2-5---3--0-||
 q. h e  q. h e  q. h e  e e e h e

 verse 2
|---------|-------------|---------|-------------|---------|-----------|
|---------|-------------|---------|-------------|---------|---4-------|
|---------|-----4---2---|---------|-----4---2---|-2--3----|-2---2-3---|
|-2--3--0-|-2-5---3---3-|-2--3--0-|-2-5---3---3-|-------2-|-----------|
 q. h e  e e e q q e  q. h e  e e e q q e  q. h e  e e e e+h

|---------|-------------|---------|-------------|-------------|--------|
|---------|-------------|---------|---------5---|---------5---|--------|
|---------|-----4---2---|-4--3--3-|-4-0-4-3---3-|-4-0-4-3---3-|--------|
|-2--3--0-|-2-5---3---3-|---------|-------------|-------------|-4--5---|
 q. h e  e e e q q e  q. h e  e e e q q e  e e e q q e  q. e+h

                        2/4
|-----------|-----------------|-------------|--------|-----||
|-----------|---------5------|---------5---|--------|-----||
|-4--3--3-|-4-0-4-3---3-|-4-0-4-3---3-|--------|-----||
|-----------|-----------------|-----------------|-4--5---|-(5)-||
 q. h e  e e e q q e  e e e q q e  q. e+h + w

4/4             2x chorus                 4x
||-------------|----------------|||-------------------|--------------------||
||-o----------|--------------o-|||-o-----------------|------------------o-||
||-o----------|-----4---2----o-|||-o-----------------|---------3--2-----o-||
||---2--3--0-|-2-5---3---3----|||---0-2-----0-2-----|-0-2-----------3----||
   q. h e  e e e q q e     s s E Q s s E Q  s s E Q e. e. e

||---------------------------------------------|----------------------------|
||-o-------------4----------------------------|-------------4-------------|
||-o-------4-------4-------------------------|-------4-------4-----------|
||---0-2-2---2-2-----5-2-3-4-5-2-4-5-|-0-2-2---2-2-----5-2-3-4-3-|
   s s s s s s s s s s s s s s s s  s s s s s s s s s s s s q

                                2x 6/4
|-------------------------------------------|-------------------------------||----|
|-------------4----------------------------|-------------4---------------o-||----|
|-------4-------4-------------------------|-------4-------4-------------o-||----|
|-0-2-2---2-2-----5-2-3-4-5-2-4-5-|-0-2-2---2-2-----1-2-3-4-5-6---||-7--|
 s s s s s s s s s s s s s s s s  s s s s s s s s e e e e e e   w. +
                          { 3 } { 3 }

    64 bpm
3/4  4/4                 |1,2,3.
|-----||-----------------------------------|------------------------------||
|-----||-o---------------------------------|----------------------------o-||
|-----||-o---------------------------------|----------------------------o-||
|-(7)-||---1-3---1-3---1-3---1-3---1-4---1-|-3---1-3---1-3---1-4---1-1----||
+ h.   s s S s s S s s S s s S s s S s  s S s s S s s S s s S s q

                  102 bpm
|4.             3/4   4/4
|---------------------------|------||---|---|---|---|-----------|----------|
|---------------------------|------||---|---|---|---|-----------|----------|
|---------------------------|------||---|---|---|---|-----------|----------|
|-3---1-3---1-3---1-4---1-1-|-(1)--||---|---|---|---|-2-2-3-0-3-|-2--3-0-3-|
 s S s s S s s S s s S s q + h.   W  W  W  W  q e q q e  q. q q e

|----------|----------|---------|--------------------|-----------|
|----------|----------|---------|---4-------10-10----|-----------|
|----------|----------|-2-2-3---|-2---2-3/9-------9\-|-------2---|
|-2--3-0-3-|-2--3-0-3-|-------2-|--------------------|-2-2-3---3-|
 q. q q e  q. q q e  e q h e  e e e e+e e e e  q e q q e

|-----------|---------|-----------|-------14----|------12-|
|-----------|---------|-----------|-12-11----11-|-10-9----|
|-------2---|-5--4--4-|-3--2--/14-|-------------|---------|
|-2-2-3---3-|---------|-----------|-------------|---------|
 q e q q e  q. h e  q. h  e  q. q q e  q. q q.

4/4             2x chorus                 4x
||-----------|----------------|||-------------------|--------------------||
||-o---------|--------------o-|||-o-----------------|------------------o-||
||-o---------|-----4---2----o-|||-o-----------------|---------3--2-----o-||
||---2--3--0-|-2-5---3---3----|||---0-2-----0-2-----|-0-2-----------3----||
   q. h e  e e e q q e     s s E Q s s E Q  s s E Q e. e. e

                                  4x
||-----------------------------------|------------------------------||
||-o---------------------------------|----------------------------o-||
||-o---------------------------------|----------------------------o-||
||---1-3---1-3---1-3---1-3---1-4---1-|-3---1-3---1-3---1-4---1-1----||
   s s S s s S s s S s s S s s S s  s S s s S s s S s s S s q

|-----------|----------||
|-----------|----------||
|-2---------|----------||
|----0----1-|-(1)--3---||
 q. e+q. e + q. e+h

 52 bpm                            5x and fade
||-----------------------------------|------------------------------||
||-o---------------------------------|----------------------------o-||
||-o---------------------------------|----------------------------o-||
||---1-3---1-3---1-3---1-3---1-4---1-|-3---1-3---1-3---1-4---1-1----||
   s s S s s S s s S s s S s s S s  s S s s S s s S s s S s q

Almost there ...

Sign in to get your own page with links to favourite songs and more. You are just one click away...

Login with Facebook Login with Google