Log in

One click and you are in

Login with Facebook Login with Google

Why sign up and log in

Guitar Tabs Explorer
Pantera tabs for The art of shredding

Guitar tabs

🏷Legend
------

 h  = hammer-on
 p  = pull-off
 /  = slide up/down
 ~  = vibrato
 ^  = Bend
  = Artificial Harmonic

Standard tuning (E,A,D,G,B,E)

   With scrapes etc
1||----------------|----||----||-----------------|------------------|
2||----------------|----||----||-----------------|------------------|
3||----------------|----||----||-----------------|------------------|
4||-2---2-1--------|----||----||-------4---2-----|------------------|
5||-2---2-1--------|----||-9\-||---------------5-|---4-2---0-3------|
6||-0-0------------|----||----||-0-2-------------|-------3-----4~---|


1||----------------------|------------------||-----------------|-----------------||
2||----------------------|------------------||-----------------|-----------------||
3||----------------------|------------------||-----------------|-----------------||
4||--------------|------------------||-4---4---2---2---|-----------------||
5||-------------------|---4-2---0-3------||---2---2---2---2-|-554-554-5-4-2-0-||
6||-0-2------------------|-------3-----4~---||-----------------|-----------------||


1||-----------------|-----------------||------------------|------------------|
2||-----------------|-----------------||------------------|------------------|
3||-----------------|-----------------||------------------|------------------|
4||-----------------|-----------------||-6---6---7---7----|-66--66--77--77---|
5||-4---4---2---2---|-----------------||---4---4---4---44-|---44--44--44--44-|
6||---2---2---2---2-|-554-554-5-4-2-0-||------------------|------------------|

                                        Fast
1||-----------------|-----------------||-----------------|-----------------||
2||-----------------|-----------------||-----------------|-----------------||
3||-----------------|-----------------||-----------------|-----------------||
4||-6-----6-----6---|---6-----6---6---||---------3-------|---5---------8\7-||
5||-4-----4-----4---|---4-----4---4---||-----5---1-----7-|---3-----8---6\5-||
6||-----------------|-----------------||-0-0-3-0---0-0-5-|-0---0-0-6-0-----||

   Endings                              Alt ending
1||-----------------|-----------------||-----------------||-------||
2||-----------------|-----------------||-----------------||-------||
3||-----------------|-----------------||-----------------||-------||
4||-3-----3-4-----4-|-3---------------||---5-------------||-4-----||
5||-1-----1-2-----2-|-1---------5-----||---3---8\7-7\6-6-||-2-----||
6||-----------------|-----------3-----||-0---0-6\5-5\4-4-||-2-----||

   Verse
1||-----------------|-----------------|-----------------|-----------------|
2||-----------------|-----------------|-----------------|-----------------|
3||-----------------|-----------------|-----------------|-----------------|
4||-----------------|-----------------|-----------------|-----------------|
5||-2---------------|-----------------|-4/6-------------|-------6-----6---|
6||-0---0-0-0-0-0-0-|-0-0-0-0-0-0-0-0-|-2/4-4-4-4-4-4-4-|-4-4-4-4-4-4-4---|

1||-----------------|-----------------|-----------------|-----------------||
2||-----------------|-----------------|-----------------|-----------------||
3||-----------------|-----------------|-----------------|-----------------||
4||-----------------|-----------------|-3-----3/4-----4\|-3-----3/4-----4-||
5||-2---------------|-----------------|-1-1-1-1/2-2-2-2\|-1-1-1-1/2-2-2-2-||
6||-0---0-0-0-0-0-0-|-0-0-0-0-0-0-0-0-|-----------------|-----------------||

                                        Alt ending
1||-----------------|-----------------||-----|---||
2||-----------------|-----------------||-----|---||
3||-----------------|-----------------||-----|---||
4||-----------------|-----------------||-----|---||
5||-7-----7-----7---|---7-----------5-||-7---|---||
6||---7-----6-----5-|-----6---5-6-7---||-----|---||


1||-----------------|------------------|-----------------|------------------||
2||-----------------|------------------|-----------------|------------------||
3||-----------------|------------------|-----------------|------------------||
4||-9\8---9\8---9\8-|------------------|-9\8---9\8---9\8-|------------------||
5||-7\6---7\6---7\6-|-6666666666666666-|-7\6---7\6---7\6-|-5555555555555555-||
6||-----------------|------------------|-----------------|------------------||

   Half time feel
1||-----------------|-----------------|-----------------|-----------------|
2||-----------------|-----------------|-----------------|-----------------|
3||-----------------|-----------------|-----------------|-----------------|
4||-3p2---3p2---3---|-----------------|-3p2---3p2---3---|-----------------|
5||-1p0---1p0---1-2-|-----2-2-2-2-2-2-|-1p0---1p0---1-3-|-----3-3-3-3-3-3-|
6||---------------0-|-----0-0-0-0-0-0-|---------------1-|-----1-1-1-1-1-1-|


1||-----------------|-----------------|-----------------||-------------------|
2||-----------------|-----------------|-----------------||-------------------|
3||-----------------|-----------------|-----------------||-------------------|
4||-----------------|-----------------|-----------------||-------------------|
5||-3p2---3p2---3/5-|-----5-5-5-5-5-4-|---4-4-3---3-3-3-||-x\---3---x\---5-6-|
6||-1p0---1p0---1/3-|-----3-3-3-3-3-2-|---2-2-1---1-1-1-||-x\---1---x\---3-4-|


1||---------------------------------|---------------------------------||
2||---------------------------------|---------------------------------||
3||---------------------------------|---------------------------------||
4||---------------------------------|---------------------------------||
5||-6-----6/7---6-----6/7---4---4---|-6-----6/7---6-----6/7---3---4---||
6||-4-4-4-4/5-4-4-4-4-4/5-0-2-0-2-0-|-4-4-4-4/5-4-4-4-4-4/5-0-1-0-2-0-||

                       Solo
1||------------------||-----------------|-----|-----------------|-----------------|
2||------------------||-----------------|-----|-----------------|-----------------|
3||------------------||-----------------|-----|-----------------|-----------------|
4||-------9988776655-||-0---------------|-----|-0---------------|-----------------|
5||-4433227766554433-||-0---2---3---5---|-7---|-0---2---3---5---|-7--7-56-7--7-56-|
6||-221100-----------||-----0---1---3---|-5---|-----0---1---3---|-5-05034-5-05034-|


1||------------------|------|-----------------|-----------------||
2||------------------|------|-----------------|-----------------||
3||------------------|------|-----------------|-----------------||
4||-7---9--10---12---|-14---|-7---------------|-4---5---7---8---||
5||-5---7---8---10---|-12---|-5---2---3---5---|-2---3---5---6---||
6||------------------|------|-----0---1---3---|-----------------||

   Ending
1||-----------------|-----------------|-----||
2||-----------------|-----------------|-----||
3||-9-----9-----9---|---9-----------7-|-9---||
4||---9-----8-----7-|-----8---7-8-9---|-9---||
5||-----------------|-----------------|-7---||
6||-----------------|-----------------|-0---||

Almost there ...

Sign in to get your own page with links to favourite songs and more. You are just one click away...

Login with Facebook Login with Google