Log in

One click and you are in

Login with Facebook Login with Google

Why sign up and log in

Guitar Tabs Explorer
Pantera bass tabs for Primal concrete sludge

Bass tabs with lyrics

PRIMAL CONCRETE SLEDGE - PANTERA
            --------------------------------

 Note lengths are written below the measures :
  w - whole note
  h - half note
  q - quarter note
  e - eight note
  s - sixteenth note
  t - thirty-second note

 Rest are noted as capitalized note lengths ie:
  W - whole rest
  H - half rest
  Q - quarter rest
  E - eight rest
  S - sixteenth rest
  T - thirty-second rest

 + is used to show slurs between notes, eg slide up from 5 to 7 without
 picking the 7 would be notated like :
  |---5/7----
    e+e
  sliding up with picking the 7 would be notated like :
  |---5/7----
    e e

 Notes without a note length are cue notes.


 h - hammer on
 p - pull off
 b - bend (amount of bend above the measure)
 r - release bend
 x - muffled string
 / - slide up
 \ - slide down
 ~ - vibrato (vib. above a measure means a more exaggerated vibrato)

       PRIMAL CONCRETE SLEDGE - PANTERA  BASS
       ---------------------------------------

Drop D Tuning (D,A,D,G)

                  4x                  4x
||-----------------------------------|||-----------------------------------||
||o---------------------------------o|||o---------------------------------o||
||o---------------------------------o|||o---------------------------------o||
||--0-0-0-0-0-0-0-0-0-0-0-0-0-0-0-0--|||--0-0-0-0-0-0-0-0-0-0-0-0-0-0-0-0--||
  s s s s s s s s s s s s s s s s    s s s s s s s s s s s s s s s s

|-------------------|-------------------|-------------------|----------------|
|-------------------|-------------------|-------------------|----------------|
|-------------------|-------------------|-------------------|----------------|
|-0-5---6--3--4---1-|-0-7---6--3--4---1-|-0-5---6--3--4---1-|-0-7---6--1-----|
 e e+s e. e. s+e e  e e+s e. e. s+e e  e e+s e. e. s+e e  e e+s e. e E Q

                  4x verse 1              4x
||-----------------------------------|||-----------------------------------||
||o---------------------------------o|||o---------------------------------o||
||o---------------------------------o|||o---------------------------------o||
||--0-0-0-0-0-0-0-0-0-0-0-0-0-0-0-0--|||--0-0-0-0-0-0-0-0-0-0-0-0-0-0-0-0--||
  s s s s s s s s s s s s s s s s    s s s s s s s s s s s s s s s s

|-------------------|-------------------|-------------------|
|-------------------|-------------------|-------------------|
|-------------------|-------------------|-------------------|
|-0-5---6--3--4---1-|-0-7---6--3--4---1-|-0-5---6--3--4---1-|
 e e+s e. e. s+e e  e e+s e. e. s+e e  e e+s e. e. s+e e

 9/8          2/4
|---------------------|-------||
|---------------------|-------||
|---------------------|-------||
|-0-7---6--5--4---3-2-|-1-----||
 e e+s e. e. s+e e e  e E Q

 4/4                4x verse 2              4x
||-----------------------------------|||-----------------------------------||
||o---------------------------------o|||o---------------------------------o||
||o---------------------------------o|||o---------------------------------o||
||--0-0-0-0-0-0-0-0-0-0-0-0-0-0-0-0--|||--0-0-0-0-0-0-0-0-0-0-0-0-0-0-0-0--||
  s s s s s s s s s s s s s s s s    s s s s s s s s s s s s s s s s

|-------------------|-------------------|-------------------|
|-------------------|-------------------|-------------------|
|-------------------|-------------------|-------------------|
|-0-5---6--3--4---1-|-0-7---6--3--4---1-|-0-5---6--3--4---1-|
 e e+s e. e. s+e e  e e+s e. e. s+e e  e e+s e. e. s+e e

 9/8          2/4
|---------------------|-------||
|---------------------|-------||
|---------------------|-------||
|-0-7---6--5--4---3-2-|-1-----||
 e e+s e. e. s+e e e  e E Q

||--------------------|-------------------|-------------------|
||o-------------------|-------------------|-------------------|
||o-------------------|-------------------|-------------------|
||--0-0-0-0-0-0-0-0-0-|-0-0-0-0-0-0-0-0-0-|-0-0-0-0-0-0-0-0-0-|
  q e e e s s e s s  q e e e s s e s s  q e e e s s e s s

|1.         |2.
|------------------||---------------||-----------------|-----|-----|
|-----------------o||---------------||-----------------|-----|-----|
|-----------------o||---------------||-----------------|--%--|--%--|
|-1--1---1---1--1--||-1-1-1-1-1-1-1-||-0-0-0-0-0-0-0-0-|-----|-----|
 e. s+e e+s e. q   e q e q e s s  e e e e e e e e

|---------------||--------------------------|-----|-----|
|---------------||o-------------------------|-----|-----|
|---------------||o-------------------------|--%--|--%--|
|-0-1---1---1---||--0-0-0-0-0-0-0-0-0-0-0-0-|-----|-----|
 e e Q e E e E   e s s e s s e s s e s s

              2x
|---------------------------||-----|-----|-----------------|
|-------------------------o-||-----|-----|-----------------|
|-------------------------o-||-----|-----|-----------------|
|-0-1-1-1-1-1-1-1-1-1-1-1---||--0--|-(0)-|-0-1-1-1-1-1-1-1-|
 e s s e s s e s s e s s    w + w  e e e e e e e e

           7/8        4/4                4x
|--------------------|-----------------||-----------------------------------||
|--------------------|-----------------||o---------------------------------o||
|--------------------|-----------------||o---------------------------------o||
|-1-1---3--4---5---6-|---7--6--5---3-1-||--0-0-0-0-0-0-0-0-0-0-0-0-0-0-0-0--||
 e e+s e. e. s+e e + s e. e. s+e e e   s s s s s s s s s s s s s s s s

||--------------------|-------------------|-------------------|
||o-------------------|-------------------|-------------------|
||o-------------------|-------------------|-------------------|
||--0-5---6--3--4---1-|-0-7---6--3--4---1-|-0-5---6--3--4---1-|
  e e+s e. e. s+e e  e e+s e. e. s+e e  e e+s e. e. s+e e

|1. 9/8         |2. 9/8       4/4
|----------------------||---------------------|---------||
|---------------------o||---------------------|---------||
|---------------------o||---------------------|---------||
|-0-7---6--5--4---3-1--||-0-7---6--5--4---3-2-|-1-------||
 e e+s e. e. s+e e e   e e+s e. e. s+e e e  e E Q H

Almost there ...

Sign in to get your own page with links to favourite songs and more. You are just one click away...

Login with Facebook Login with Google