Log in

One click and you are in

Login with Facebook Login with Google

Why sign up and log in

Guitar Tabs Explorer
Pantera tabs for No good

Guitar tabs with lyrics

No Good (Attack the Radical)
 By Pantera
>From the album Vulgar Display of Power

<<Transcribed By Rich Thomas, Jr. -- Ric4479901@aol.com>>

Drop A chord diagramD MajorD Tuning

Intro

 |------------------------------------------------------------|

 |------------------------------------------------------------|

 |------------------------------------------------------------|

 |---------------------------3--------------------------3---|

 |----------------0--3H5------------------0--3H5-------|

 |-----0--3H5-----------------0--3H5-------------------|


    2nd Half of Intro (Play Twice)
 |---------------------------------------------------------------|
 |---------------------------------------------------------------|
 |---------------------------------------------------------------|
 |---------------------------------------------------------------|
 |-----------------------------------------------3h5--3h5---|
 |--3--4H5--3b--0----0--3h5--3b--0-------------------|


 |--------------------------------------------------------------|
 |--------------------------------------------------------------|
 |--------------------------------------------------------------|
 |--------------------------------------------------------------|
 |--------------------------------------------------------------|
 |-----3--4H5--3b--0-----0--3h5--3b--0--5/7--3----|

 |----------------------------------------------------------|
 |----------------------------------------------------------|
 |----------------------------------------------------------|
 |------------------------------------------------------3--|
 |----------------------------------------------3--5------|
 |--3--4H5--3b--0------0--3--0--3--5--------------|


 |------------------------------------------------------------------|
 |------------------------------------------------------------------|
 |------------------------------------------------------------------|
 |------------------------------------------------------------------|
 |------------------------------------------------------------------|
 |----3--4H5--3b--0-----0--3h5--3b--0--5/7--3----0---------|


































































|-------------------------------|
|-------------------------------|
|-------------------------------|
|-------------------------------|
|-------------------------------|
|-------------------------------|
  Rest for two Bars

In the states there's a problem with race ...

-----------------------------------------------

|-----------------------------------------------------------------------------
--------------------|
|-----------------------------------------------------------------------------
--------------------|
|-----------------------------------------------------------------------------
--------------------|
|-----------------------------------------------------------------------------
--------------------|
|------5/7---3----1-1--1-1--1-1--1-1----44--44----1-1--1-1--1-1--1-1---5--6---
--------|
|------5/7---3----1-1--1-1--1-1--1-1----44--44----1-1--1-1--1-1--1-1---5--6---
--------|



















                                                                            3
Times
No chance, not for a minute...

|-----------------------------------------------------------------------------
-----------|
|-----------------------------------------------------------------------------
-----------|
|-----------------------------------------------------------------------------
-----------|
|-----------------------------------------------------------------------------
-----------|
|-----1-1--1-1--1-1--1-1----44--44----1-1--1-1--1-1--1-1-----5/7--3-----------
|
|-----1-1--1-1--1-1--1-1----44--44----1-1--1-1--1-1--1-1-----5/7--3-----------
|

           inferior, be superior, and ...


Pre-Chorus
------------------------------------------------

|-----------------------------------------------------------------------------
------------------------|
|-----------------------------------------------------------------------------
------------------------|
|-----------------------------------------------------------------------------
------------------------|
|-----------------------------------------------------------------------------
------------------------|
|---5/7--77---5/7--77---5/7--77--10--5-----------5/7--77---5/7--77---5/7--77--
-3--5-----|
|---5/7--77---5/7--77---5/7--77--10--5-----------5/7--77---5/7--77---5/7--77--
-3--5-----|

   Race, pride, prejudice....                          ...
stand

|-----------------------------------------------------------------------------
-----------------------|
|-----------------------------------------------------------------------------
-----------------------|
|-----------------------------------------------------------------------------
-----------------------|
|-----------------------------------------------------------------------------
-----------------------|
|---5/7--77---5/7--77---5/7--77--10--5----------5/7--77---5/7--77---5/7--77--1
0--11---|
|---5/7--77---5/7--77---5/7--77--10--5----------5/7--77---5/7--77---5/7--77--1
0--11---|

  Live in the past, we make it last, a ...

(Play 2nd half of intro for chorus)
-------------------------------------------------------------------
So low , behold my ...

2nd verse ( repeat TAB as above)
-----------------------------------------------------------------
You blame the oppession and play the role ...


Pre-chorus
----------------------------

Chorus

1st half of intro

<Solo>

|-----------------------------------------------------------------------------
---------------|
|-----------------------------------------------------------------------------
---------------|
|-----------------------------------------------------------------------------
---------------|
|-----------------------------------------------------------------------------
---------------|
|----011111111111-3/4---011111111111-3/4---011111111111-3/4---11-11---|
|----011111111111-3/4---011111111111-3/4---011111111111-3/4---11-11---|









































                                                                      (twice)


Chorus

Repeat TAB after solo
Fade Out

 Follow album for timing, ect.
No solo yet, will send later.
 thanks,
              Rich

Other versions of No Good

No good attack the radicalTabs

Almost there ...

Sign in to get your own page with links to favourite songs and more. You are just one click away...

Login with Facebook Login with Google