Log in

One click and you are in

Login with Facebook Login with Google

Why sign up and log in

Guitar Tabs Explorer
Pantera bass tabs for No good attack the radical

No Good Attack The Radical bass tab - Pantera

Pantera bass tabs for No good attack the radical

Bass tabs

Tuning: Drop D (D A D G)

Title: No Good (Attack the Radical)
Album: Vulgar Display of Power

Tuning: Drop D (D A D G)
INTRO:

   1  +  2  +  3  +  4  +   1  +  2  +  3  +  4  +
G |-----------------------------------------|-----------------------------------------|
D |--------------------------------3--------|-----------------------------------------|
A |-----------------2----3////5-------------|-----------------------------------------|
D |--0----2----3----------------------------|-----------------------------------------|


   1  +  2  +  3  +  4  +   1  +  2  +  3  +  4  +
G |-----------------------------------------|-----------------------------------------|
D |--------------------------------3--------|-----------------------------------------|
A |-----------------2----3////5-------------|-----------------------------------------|
D |--0----2----3----------------------------|----------------------12\\\\\\\\\\\\\\\\\|


   1  +  2  +  3  +  4  +   1  +  2  +  3  +  4  +
G |-----------------------------------------|-----------------------------------------|
D |-----------------------------------------|-----------------------------------------|
A |-----------------------------------------|----------------------3---h5----3---h5---|
D |--0----3----5----3---------0---------2---|-------3---------0-----------------------|


   1  +  2  +  3  +  4  +   1  +  2  +  3  +  4  +
G |-----------------------------------------|-----------------------------------------|
D |-----------------------------------------|-----------------------------------------|
A |-----------------------------------------|-----------------------------------------|
D |--0----3----5----3---------0---------2---|-------3---------0----5b--------3--------|

   1  +  2  +  3  +  4  +   1  +  2  +  3  +  4  +
G |-----------------------------------------|-----------------------------------------|
D |-----------------------------------------|--------------------------------3--------|
A |-----------------------------------------|------------2----3----4----5-------------|
D |--0----3----5----3---------0---------2---|-------3---------------------------------|


   1  +  2  +  3  +  4  +   1  +  2  +  3  +  4  +
G |-----------------------------------------|-----------------------------------------|
D |-----------------------------------------|-----------------------------------------|
A |-----------------------------------------|-----------------------------------------|
D |--0----3----5----3---------0---------2---|-------3---------0----5b--------3--------|


   1  +  2  +  3  +  4  +   1  +  2  +  3  +  4  +
G |-----------------------------------------|-----------------------------------------|
D |-----------------------------------------|-----------------------------------------|
A |-----------------------------------------|----------------------3---h5----3---h5---|
D |--0----3----5----3---------0---------2---|-------3---------0-----------------------|


   1  +  2  +  3  +  4  +   1  +  2  +  3  +  4  +
G |-----------------------------------------|-----------------------------------------|
D |-----------------------------------------|-----------------------------------------|
A |-----------------------------------------|-----------------------------------------|
D |--0----3----5----3---------0---------2---|-------3---------0----5b--------3--------|


   1  +  2  +  3  +  4  +   1  +  2  +  3  +  4  +
G |-----------------------------------------|-----------------------------------------|
D |-----------------------------------------|--------------------------------3--------|
A |-----------------------------------------|------------2----3----4----5-------------|
D |--0----3----5----3---------0---------2---|-------3---------------------------------|


   1  +  2  +  3  +  4  +   1  +  2  +  3  +  4  +
G |-----------------------------------------|-----------------------------------------|
D |-----------------------------------------|-----------------------------------------|
A |-----------------------------------------|-----------------------------------------|
D |--0----3----5----3---------0---------2---|-------3---------0----5b--------3--------|


PRE-VERSE 1:

   1  +  2  +  3  +  4  +   1  +  2  +  3  +  4  +
G |-----------------------------------------|-----------------------------------------|
D |-----------------------------------------|-----------------------------------------|
A |-----------------------------------------|-----------------------------------------|
D |--0----0---------0----0---------0----0---|-------0----0---------2----3----2----1---|


   1  +  2  +  3  +  4  +   1  +  2  +  3  +  4  +
G |-----------------------------------------|-----------------------------------------|
D |-----------------------------------------|-----------------------------------------|
A |-----------------------------------------|-----------------------------------------|
D |--0----0---------0----0---------0----0---|-------0----0---------5b--------3--------|


   1  +  2  +  3  +  4  +   1  +  2  +  3  +  4  +
G |-----------------------------------------|-----------------------------------------|
D |-----------------------------------------|-----------------------------------------|
A |-----------------------------------------|-----------------------------------------|
D |--0----0---------0----0---------0----0---|-------0----0---------2----3----2----1---|


   1  +  2  +  3  +  4  +   1  +  2  +  3  +  4  +
G |-----------------------------------------|-----------------------------------------|
D |-----------------------------------------|-----------------------------------------|
A |-----------------------------------------|-----------------------------------------|
D |--0----0---------0----0---------0----0---|-------0----0---------5b--------3--------|


VERSE 1:

   1  +  2  +  3  +  4  +   1  +  2  +  3  +  4  +
G |-----------------------------------------|-----------------------------------------|
D |-----------------------------------------|-----------------------------------------|
A |-----------------------------------------|-----------------------------------------|
D |--0----0---------0----0---------0----0---|-------0----0---------2----3----2----1---|


   1  +  2  +  3  +  4  +   1  +  2  +  3  +  4  +
G |-----------------------------------------|-----------------------------------------|
D |-----------------------------------------|-----------------------------------------|
A |-----------------------------------------|-----------------------------------------|
D |--0----0---------0----0---------0----0---|-------0----5-------------------6--------|


   1  +  2  +  3  +  4  +   1  +  2  +  3  +  4  +
G |-----------------------------------------|-----------------------------------------|
D |-----------------------------------------|-----------------------------------------|
A |-----------------------------------------|-----------------------------------------|
D |--0----0---------0----0---------0----0---|-------0----0---------2----3----2----1---|


   1  +  2  +  3  +  4  +   1  +  2  +  3  +  4  +
G |-----------------------------------------|-----------------------------------------|
D |-----------------------------------------|-----------------------------------------|
A |-----------------------------------------|-----------------------------------------|
D |--0----0---------0----0---------0----0---|-------0----5-------------------6--------|


   1  +  2  +  3  +  4  +   1  +  2  +  3  +  4  +
G |-----------------------------------------|-----------------------------------------|
D |-----------------------------------------|-----------------------------------------|
A |-----------------------------------------|-----------------------------------------|
D |--0----0---------0----0---------0----0---|-------0----0---------2----3----2----1---|


   1  +  2  +  3  +  4  +   1  +  2  +  3  +  4  +
G |-----------------------------------------|-----------------------------------------|
D |-----------------------------------------|-----------------------------------------|
A |-----------------------------------------|-----------------------------------------|
D |--0----0---------0----0---------0----0---|-------0----5-------------------6--------|


   1  +  2  +  3  +  4  +   1  +  2  +  3  +  4  +
G |-----------------------------------------|-----------------------------------------|
D |-----------------------------------------|-----------------------------------------|
A |-----------------------------------------|-----------------------------------------|
D |--0----0---------0----0---------0----0---|-------0----0---------2----3----2----1---|


   1  +  2  +  3  +  4  +   1  +  2  +  3  +  4  +
G |-----------------------------------------|-----------------------------------------|
D |-----------------------------------------|-----------------------------------------|
A |-----------------------------------------|-----------------------------------------|
D |--0----0---------0----0---------0----0---|-------0----0---------5b--------3--------|


PRE-CHORUS 1:

   1  +  2  +  3  +  4  +   1  +  2  +  3  +  4  +
G |-----------------------------------------|-----------------------------------------|
D |-----------------------------------------|-----------------------------------------|
A |-----------------------------------------|-----------------------------------------|
D |--6b-------------6b--------6---------6---|--6b-------------6b--------6---------6---|


   1  +  2  +  3  +  4  +   1  +  2  +  3  +  4  +
G |-----------------------------------------|-----------------------------------------|
D |-----------------------------------------|-----------------------------------------|
A |-----------------------------------------|-----------------------------------------|
D |--6b-------------6b--------6---------6---|--10------------------6------------------|


   1  +  2  +  3  +  4  +   1  +  2  +  3  +  4  +
G |-----------------------------------------|-----------------------------------------|
D |-----------------------------------------|-----------------------------------------|
A |-----------------------------------------|-----------------------------------------|
D |--6b-------------6b--------6---------6---|--6b-------------6b--------6---------6---|


   1  +  2  +  3  +  4  +   1  +  2  +  3  +  4  +
G |-----------------------------------------|-----------------------------------------|
D |-----------------------------------------|-----------------------------------------|
A |-----------------------------------------|-----------------------------------------|
D |--6b-------------6b--------6---------6---|-------3--------------6------------------|


   1  +  2  +  3  +  4  +   1  +  2  +  3  +  4  +
G |-----------------------------------------|-----------------------------------------|
D |-----------------------------------------|-----------------------------------------|
A |-----------------------------------------|-----------------------------------------|
D |--6b-------------6b--------6---------6---|--6b-------------6b--------6---------6---|


   1  +  2  +  3  +  4  +   1  +  2  +  3  +  4  +
G |-----------------------------------------|-----------------------------------------|
D |-----------------------------------------|-----------------------------------------|
A |-----------------------------------------|-----------------------------------------|
D |--6b-------------6b--------6---------6---|--10------------------6------------------|


   1  +  2  +  3  +  4  +   1  +  2  +  3  +  4  +
G |-----------------------------------------|-----------------------------------------|
D |-----------------------------------------|-----------------------------------------|
A |-----------------------------------------|-----------------------------------------|
D |--6b-------------6b--------6---------6---|--6b-------------6b--------6---------6---|


   1  +  2  +  3  +  4  +   1  +  2  +  3  +  4  +
G |-----------------------------------------|-----------------------------------------|
D |-----------------------------------------|-----------------------------------------|
A |-----------------------------------------|-----------------------------------------|
D |--6b-------------6b--------6---------6---|-------10-------------11-----------------|


CHORUS 1:

   1  +  2  +  3  +  4  +   1  +  2  +  3  +  4  +
G |-----------------------------------------|-----------------------------------------|
D |-----------------------------------------|-----------------------------------------|
A |-----------------------------------------|----------------------3---h5----3---h5---|
D |--0----3----5----3---------0---------2---|-------3---------0-----------------------|


   1  +  2  +  3  +  4  +   1  +  2  +  3  +  4  +
G |-----------------------------------------|-----------------------------------------|
D |-----------------------------------------|-----------------------------------------|
A |-----------------------------------------|-----------------------------------------|
D |--0----3----5----3---------0---------2---|-------3---------0----5b--------3--------|


   1  +  2  +  3  +  4  +   1  +  2  +  3  +  4  +
G |-----------------------------------------|-----------------------------------------|
D |-----------------------------------------|--------------------------------3--------|
A |-----------------------------------------|------------2----3----4----5-------------|
D |--0----3----5----3---------0---------2---|-------3---------------------------------|


   1  +  2  +  3  +  4  +   1  +  2  +  3  +  4  +
G |-----------------------------------------|-----------------------------------------|
D |-----------------------------------------|-----------------------------------------|
A |-----------------------------------------|-----------------------------------------|
D |--0----3----5----3---------0---------2---|-------3---------0----5b--------3--------|


   1  +  2  +  3  +  4  +   1  +  2  +  3  +  4  +
G |-----------------------------------------|-----------------------------------------|
D |-----------------------------------------|-----------------------------------------|
A |-----------------------------------------|----------------------3---h5----3---h5---|
D |--0----3----5----3---------0---------2---|-------3---------0-----------------------|


   1  +  2  +  3  +  4  +   1  +  2  +  3  +  4  +
G |-----------------------------------------|-----------------------------------------|
D |-----------------------------------------|-----------------------------------------|
A |-----------------------------------------|-----------------------------------------|
D |--0----3----5----3---------0---------2---|-------3---------0----5b--------3--------|


   1  +  2  +  3  +  4  +   1  +  2  +  3  +  4  +
G |-----------------------------------------|-----------------------------------------|
D |-----------------------------------------|--------------------------------3--------|
A |-----------------------------------------|------------2----3----4----5-------------|
D |--0----3----5----3---------0---------2---|-------3---------------------------------|


   1  +  2  +  3  +  4  +   1  +  2  +  3  +  4  +
G |-----------------------------------------|-----------------------------------------|
D |-----------------------------------------|-----------------------------------------|
A |-----------------------------------------|-----------------------------------------|
D |--0----3----5----3---------0---------2---|-------3---------0----5b--------3--------|


PRE-VERSE 2:

   1  +  2  +  3  +  4  +   1  +  2  +  3  +  4  +
G |-----------------------------------------|-----------------------------------------|
D |-----------------------------------------|-----------------------------------------|
A |-----------------------------------------|-----------------------------------------|
D |--0----0---------0----0---------0----0---|-------0----0---------2----3----2----1---|


   1  +  2  +  3  +  4  +   1  +  2  +  3  +  4  +
G |-----------------------------------------|-----------------------------------------|
D |-----------------------------------------|-----------------------------------------|
A |-----------------------------------------|-----------------------------------------|
D |--0----0---------0----0---------0----0---|-------0----0---------5b--------3--------|


   1  +  2  +  3  +  4  +   1  +  2  +  3  +  4  +
G |-----------------------------------------|-----------------------------------------|
D |-----------------------------------------|-----------------------------------------|
A |-----------------------------------------|-----------------------------------------|
D |--0----0---------0----0---------0----0---|-------0----0---------2----3----2----1---|


   1  +  2  +  3  +  4  +   1  +  2  +  3  +  4  +
G |-----------------------------------------|-----------------------------------------|
D |-----------------------------------------|-----------------------------------------|
A |-----------------------------------------|-----------------------------------------|
D |--0----0---------0----0---------0----0---|-------0----0---------5b--------3--------|


VERSE 2:

   1  +  2  +  3  +  4  +   1  +  2  +  3  +  4  +
G |-----------------------------------------|-----------------------------------------|
D |-----------------------------------------|-----------------------------------------|
A |-----------------------------------------|-----------------------------------------|
D |--0----0---------0----0---------0----0---|-------0----0---------2----3----2----1---|


   1  +  2  +  3  +  4  +   1  +  2  +  3  +  4  +
G |-----------------------------------------|-----------------------------------------|
D |-----------------------------------------|-----------------------------------------|
A |-----------------------------------------|-----------------------------------------|
D |--0----0---------0----0---------0----0---|-------0----5-------------------6--------|


   1  +  2  +  3  +  4  +   1  +  2  +  3  +  4  +
G |-----------------------------------------|-----------------------------------------|
D |-----------------------------------------|-----------------------------------------|
A |-----------------------------------------|-----------------------------------------|
D |--0----0---------0----0---------0----0---|-------0----0---------2----3----2----1---|


   1  +  2  +  3  +  4  +   1  +  2  +  3  +  4  +
G |-----------------------------------------|-----------------------------------------|
D |-----------------------------------------|-----------------------------------------|
A |-----------------------------------------|-----------------------------------------|
D |--0----0---------0----0---------0----0---|-------0----5-------------------6--------|


   1  +  2  +  3  +  4  +   1  +  2  +  3  +  4  +
G |-----------------------------------------|-----------------------------------------|
D |-----------------------------------------|-----------------------------------------|
A |-----------------------------------------|-----------------------------------------|
D |--0----0---------0----0---------0----0---|-------0----0---------2----3----2----1---|


   1  +  2  +  3  +  4  +   1  +  2  +  3  +  4  +
G |-----------------------------------------|-----------------------------------------|
D |-----------------------------------------|-----------------------------------------|
A |-----------------------------------------|-----------------------------------------|
D |--0----0---------0----0---------0----0---|-------0----5-------------------6--------|


   1  +  2  +  3  +  4  +   1  +  2  +  3  +  4  +
G |-----------------------------------------|-----------------------------------------|
D |-----------------------------------------|-----------------------------------------|
A |-----------------------------------------|-----------------------------------------|
D |--0----0---------0----0---------0----0---|-------0----0---------2----3----2----1---|


   1  +  2  +  3  +  4  +   1  +  2  +  3  +  4  +
G |-----------------------------------------|-----------------------------------------|
D |-----------------------------------------|-----------------------------------------|
A |-----------------------------------------|-----------------------------------------|
D |--0----0---------0----0---------0----0---|-------0----0---------5b--------3--------|


PRE-CHORUS 2:

   1  +  2  +  3  +  4  +   1  +  2  +  3  +  4  +
G |-----------------------------------------|-----------------------------------------|
D |-----------------------------------------|-----------------------------------------|
A |-----------------------------------------|-----------------------------------------|
D |--6b-------------6b--------6---------6---|--6b-------------6b--------6---------6---|


   1  +  2  +  3  +  4  +   1  +  2  +  3  +  4  +
G |-----------------------------------------|-----------------------------------------|
D |-----------------------------------------|-----------------------------------------|
A |-----------------------------------------|-----------------------------------------|
D |--6----7---------7---------6---------6---|--10------------------6------------------|


   1  +  2  +  3  +  4  +   1  +  2  +  3  +  4  +
G |-----------------------------------------|-----------------------------------------|
D |-----------------------------------------|-----------------------------------------|
A |-----------------------------------------|-----------------------------------------|
D |--6----7---------7---------6---------6---|--6----7---------7---------6---------6---|


   1  +  2  +  3  +  4  +   1  +  2  +  3  +  4  +
G |-----------------------------------------|-----------------------------------------|
D |-----------------------------------------|-----------------------------------------|
A |-----------------------------------------|-----------------------------------------|
D |--6----7---------7---------6---------6---|-------3--------------6------------------|


   1  +  2  +  3  +  4  +   1  +  2  +  3  +  4  +
G |-----------------------------------------|-----------------------------------------|
D |-----------------------------------------|-----------------------------------------|
A |-----------------------------------------|-----------------------------------------|
D |--6----7---------7---------6---------6---|--6----7---------7---------6---------6---|


   1  +  2  +  3  +  4  +   1  +  2  +  3  +  4  +
G |-----------------------------------------|-----------------------------------------|
D |-----------------------------------------|-----------------------------------------|
A |-----------------------------------------|-----------------------------------------|
D |--6----7---------7---------6---------6---|--10------------------6------------------|


   1  +  2  +  3  +  4  +   1  +  2  +  3  +  4  +
G |-----------------------------------------|-----------------------------------------|
D |-----------------------------------------|-----------------------------------------|
A |-----------------------------------------|-----------------------------------------|
D |--6----7---------7---------6---------6---|--6----7---------7---------6---------6---|


   1  +  2  +  3  +  4  +   1  +  2  +  3  +  4  +
G |-----------------------------------------|-----------------------------------------|
D |-----------------------------------------|-----------------------------------------|
A |-----------------------------------------|-----------------------------------------|
D |--6----7---------7---------6---------6---|-------10-------------11-----------------|



CHORUS 2:

   1  +  2  +  3  +  4  +   1  +  2  +  3  +  4  +
G |-----------------------------------------|-----------------------------------------|
D |-----------------------------------------|-----------------------------------------|
A |-----------------------------------------|----------------------3---h5----3---h5---|
D |--0----3----5----3---------0---------2---|-------3---------0-----------------------|


   1  +  2  +  3  +  4  +   1  +  2  +  3  +  4  +
G |-----------------------------------------|-----------------------------------------|
D |-----------------------------------------|-----------------------------------------|
A |-----------------------------------------|-----------------------------------------|
D |--0----3----5----3---------0---------2---|-------3---------0----5b--------3--------|


   1  +  2  +  3  +  4  +   1  +  2  +  3  +  4  +
G |-----------------------------------------|-----------------------------------------|
D |-----------------------------------------|--------------------------------3--------|
A |-----------------------------------------|------------2----3----4----5-------------|
D |--0----3----5----3---------0---------2---|-------3---------------------------------|


   1  +  2  +  3  +  4  +   1  +  2  +  3  +  4  +
G |-----------------------------------------|-----------------------------------------|
D |-----------------------------------------|-----------------------------------------|
A |-----------------------------------------|-----------------------------------------|
D |--0----3----5----3---------0---------2---|-------3---------0----5b--------3--------|


   1  +  2  +  3  +  4  +   1  +  2  +  3  +  4  +
G |-----------------------------------------|-----------------------------------------|
D |-----------------------------------------|-----------------------------------------|
A |-----------------------------------------|----------------------3---h5----3---h5---|
D |--0----3----5----3---------0---------2---|-------3---------0-----------------------|


   1  +  2  +  3  +  4  +   1  +  2  +  3  +  4  +
G |-----------------------------------------|-----------------------------------------|
D |-----------------------------------------|-----------------------------------------|
A |-----------------------------------------|-----------------------------------------|
D |--0----3----5----3---------0---------2---|-------3---------0----5b--------3--------|


   1  +  2  +  3  +  4  +   1  +  2  +  3  +  4  +
G |-----------------------------------------|-----------------------------------------|
D |-----------------------------------------|--------------------------------3--------|
A |-----------------------------------------|------------2----3----4----5-------------|
D |--0----3----5----3---------0---------2---|-------3---------------------------------|


   1  +  2  +  3  +  4  +   1  +  2  +  3  +  4  +
G |-----------------------------------------|-----------------------------------------|
D |-----------------------------------------|-----------------------------------------|
A |-----------------------------------------|-----------------------------------------|
D |--0----3----5----3---------0---------2---|-------3---------0----5b--------3--------|


PRE-SOLO:

   1  +  2  +  3  +  4  +   1  +  2  +  3  +  4  +
G |-----------------------------------------|-----------------------------------------|
D |--------------------------------3--------|-----------------------------------------|
A |-----------------2----3////5-------------|-----------------------------------------| (x2)
D |--0----2----3----------------------------|-----------------------------------------|


   1  +  2  +  3  +  4  +   1  +  2  +  3  +  4  +
G |-----------------------------------------|-----------------------------------------|
D |-----------------------------------------|-----------------------------------------|
A |-----------------------------------------|-----------------------------------------|
D |--0----0---------0----0---------0----0---|-------0----0---------12--------12-------|


   1  +  2  +  3  +  4  +   1  +  2  +  3  +  4  +
G |-----------------------------------------|-----------------------------------------|
D |-----------------------------------------|-----------------------------------------|
A |-----------------------------------------|-----------------------------------------|
D |--0----0---------0----0---------0----0---|-------0----0---------12b----------------|


   1  +  2  +  3  +  4  +   1  +  2  +  3  +  4  +
G |-----------------------------------------|-----------------------------------------|
D |-----------------------------------------|-----------------------------------------|
A |-----------------------------------------|-----------------------------------------|
D |--0----0---------0----0---------0----0---|-------0----0---------10--------10-------|


   1  +  2  +  3  +  4  +   1  +  2  +  3  +  4  +
G |-----------------------------------------|-----------------------------------------|
D |-----------------------------------------|-----------------------------------------|
A |-----------------------------------------|-----------------------------------------|
D |--0----0---------0----0---------0----0---|-------0----0---------12---0-------------|


SOLO:

   1  +  2  +  3  +  4  +   1  +  2  +  3  +  4  +
G |-----------------------------------------|-----------------------------------------|
D |-----------------------------------------|-----------------------------------------|
A |-----------------------------------------|-----------------------------------------|
D |--3----3---------3----3---------3----3---|-------3----3---------5---------5--------|


   1  +  2  +  3  +  4  +   1  +  2  +  3  +  4  +
G |-----------------------------------------|-----------------------------------------|
D |-----------------------------------------|-----------------------------------------|
A |-----------------------------------------|-----------------------------------------|
D |--3----3---------3----3---------3----3---|-------3----3----------------------------|


   1  +  2  +  3  +  4  +   1  +  2  +  3  +  4  +
G |-----------------------------------------|-----------------------------------------|
D |-----------------------------------------|-----------------------------------------|
A |-----------------------------------------|-----------------------------------------|
D |--3----3---------3----3---------3----3---|-------3----3---------5---------5--------|


   1  +  2  +  3  +  4  +   1  +  2  +  3  +  4  +
G |-----------------------------------------|-----------------------------------------|
D |-----------------------------------------|-----------------------------------------|
A |-----------------------------------------|-----------------------------------------|
D |--3----3---------3----3---------3----3---|-------3----3---p0----3----2----1--------|


   1  +  2  +  3  +  4  +   1  +  2  +  3  +  4  +
G |-----------------------------------------|-----------------------------------------|
D |-----------------------------------------|-----------------------------------------|
A |-----------------------------------------|-----------------------------------------|
D |--0----0---------0----0---------0----0---|-------0----0---------2----3----2----1---|


   1  +  2  +  3  +  4  +   1  +  2  +  3  +  4  +
G |-----------------------------------------|-----------------------------------------|
D |-----------------------------------------|-----------------------------------------|
A |-----------------------------------------|-----------------------------------------|
D |--0----0---------0----0---------0----0---|-------0----0---------5b--------3--------|


   1  +  2  +  3  +  4  +   1  +  2  +  3  +  4  +
G |-----------------------------------------|-----------------------------------------|
D |-----------------------------------------|-----------------------------------------|
A |-----------------------------------------|-----------------------------------------|
D |--0----0---------0----0---------0----0---|-------0----0---------2----3----2----1---|


   1  +  2  +  3  +  4  +   1  +  2  +  3  +  4  +
G |-----------------------------------------|-----------------------------------------|
D |-----------------------------------------|-----------------------------------------|
A |-----------------------------------------|-----------------------------------------|
D |--0----0---------0----0---------0////12--|-------12---12--------12---12---12\\\\\\\|


BRIDGE:

   1  +  2  +  3  +  4  +   1  +  2  +  3  +  4  +
G |-----------------------------------------|-----------------------------------------|
D |-----------------------------------------|-----------------------------------------|
A |-----------------------------------------|-----------------------------------------|
D |--0----0----0----0----0----0----0----0---|--0----0----0----0----2----3-------------|


   1  +  2  +  3  +  4  +   1  +  2  +  3  +  4  +
G |-----------------------------------------|-----------------------------------------|
D |-----------------------------------------|-----------------------------------------|
A |-----------------------------------------|-----------------------------------------|
D |--0----0----0----0----0----0----0----0---|--0----0----0----0----2----3-------------|


   1  +  2  +  3  +  4  +   1  +  2  +  3  +  4  +
G |-----------------------------------------|-----------------------------------------|
D |-----------------------------------------|-----------------------------------------|
A |-----------------------------------------|-----------------------------------------|
D |--0----0----0----0----0----0----0----0---|--0----0----0----0----2----3-------------|


   1  +  2  +  3  +  4  +   1  +  2  +  3  +  4  +
G |-----------------------------------------|-----------------------------------------|
D |-----------------------------------------|-----------------------------------------|
A |-----------------------------------------|-----------------------------------------|
D |--0----0---------0----0------------------|--0----0----0----0----0----0----0----0---|


   1  +  2  +  3  +  4  +   1  +  2  +  3  +  4  +
G |-----------------------------------------|-----------------------------------------|
D |-----------------------------------------|-----------------------------------------|
A |-----------------------------------------|-----------------------------------------|
D |--0----0----0----0----2----3-------------|--0----0----0----0----0----0----0----0---|


   1  +  2  +  3  +  4  +   1  +  2  +  3  +  4  +
G |-----------------------------------------|-----------------------------------------|
D |-----------------------------------------|-----------------------------------------|
A |-----------------------------------------|-----------------------------------------|
D |--0----0----0----0----2----3-------------|--0----0----0----0----0----0----0----0---|


   1  +  2  +  3  +  4  +   1  +  2  +  3  +  4  +
G |-----------------------------------------|-----------------------------------------|
D |-----------------------------------------|-----------------------------------------|
A |-----------------------------------------|-----------------------------------------|
D |--0----0----0----0----2----3-------------|--0----0---------0----0------------------|


   1  +  2  +  3  +  4  +
G |-----------------------------------------|
D |-----------------------------------------|
A |-----------------------------------------|
D |----------------------2----3----2----1---|


CHORUS 3:

   1  +  2  +  3  +  4  +   1  +  2  +  3  +  4  +
G |-----------------------------------------|-----------------------------------------|
D |-----------------------------------------|-----------------------------------------|
A |-----------------------------------------|----------------------3---h5----3---h5---|
D |--0----3----5----3---------0---------2---|-------3---------0-----------------------|


   1  +  2  +  3  +  4  +   1  +  2  +  3  +  4  +
G |-----------------------------------------|-----------------------------------------|
D |-----------------------------------------|-----------------------------------------|
A |-----------------------------------------|-----------------------------------------|
D |--0----3----5----3---------0---------2---|-------3---------0----5b--------3--------|


   1  +  2  +  3  +  4  +   1  +  2  +  3  +  4  +
G |-----------------------------------------|-----------------------------------------|
D |-----------------------------------------|--------------------------------3--------|
A |-----------------------------------------|------------2----3----4----5-------------|
D |--0----3----5----3---------0---------2---|-------3---------------------------------|


   1  +  2  +  3  +  4  +   1  +  2  +  3  +  4  +
G |-----------------------------------------|-----------------------------------------|
D |-----------------------------------------|-----------------------------------------|
A |-----------------------------------------|-----------------------------------------|
D |--0----3----5----3---------0---------2---|-------3---------0----5b--------3--------|


   1  +  2  +  3  +  4  +   1  +  2  +  3  +  4  +
G |-----------------------------------------|-----------------------------------------|
D |-----------------------------------------|-----------------------------------------|
A |-----------------------------------------|----------------------3---h5----3---h5---|
D |--0----3----5----3---------0---------2---|-------3---------0-----------------------|


   1  +  2  +  3  +  4  +   1  +  2  +  3  +  4  +
G |-----------------------------------------|-----------------------------------------|
D |-----------------------------------------|-----------------------------------------|
A |-----------------------------------------|-----------------------------------------|
D |--0----3----5----3---------0---------2---|-------3---------0----5b--------3--------|


   1  +  2  +  3  +  4  +   1  +  2  +  3  +  4  +
G |-----------------------------------------|-----------------------------------------|
D |-----------------------------------------|--------------------------------3--------|
A |-----------------------------------------|------------2----3----4----5-------------|
D |--0----3----5----3---------0---------2---|-------3---------------------------------|


   1  +  2  +  3  +  4  +   1  +  2  +  3  +  4  +
G |-----------------------------------------|-----------------------------------------|
D |-----------------------------------------|-----------------------------------------|
A |-----------------------------------------|-----------------------------------------|
D |--0----3----5----3---------0---------2---|-------3---------0----5b--------3--------|


OUTRO:

   1  +  2  +  3  +  4  +   1  +  2  +  3  +  4  +
G |-----------------------------------------|-----------------------------------------|
D |-----------------------------------------|-----------------------------------------|
A |-----------------------------------------|-----------------------------------------|
D |--0----0----0----0----0----0----0----0---|--0----0----0----0----2----3-------------|


   1  +  2  +  3  +  4  +   1  +  2  +  3  +  4  +
G |-----------------------------------------|-----------------------------------------|
D |-----------------------------------------|-----------------------------------------|
A |-----------------------------------------|-----------------------------------------|
D |--0----0----0----0----0----0----0----0---|--0----0----0----0----2----3-------------|


   1  +  2  +  3  +  4  +   1  +  2  +  3  +  4  +
G |-----------------------------------------|-----------------------------------------|
D |-----------------------------------------|-----------------------------------------|
A |-----------------------------------------|-----------------------------------------|
D |--0----0----0----0----0----0----0----0---|--0----0----0----0----2----3-------------|


   1  +  2  +  3  +  4  +
G |-----------------------------------------|
D |-----------------------------------------|
A |-----------------------------------------|
D |--0----0---------0----0------------------|


   1  +  2  +  3  +  4  +   1  +  2  +  3  +  4  +
G |-----------------------------------------|-----------------------------------------|
D |-----------------------------------------|-----------------------------------------|
A |-----------------------------------------|-----------------------------------------| (x20)
D |--0----0----0----0----0----0----0----0---|--0----0----0----0----2----3-------------|


***********************************

| \  Slide down
| /  Slide up
| b  Bend
| h  Hammer on
| p  Pull off

***********************************

Almost there ...

Sign in to get your own page with links to favourite songs and more. You are just one click away...

Login with Facebook Login with Google