Log in

One click and you are in

Login with Facebook Login with Google

Why sign up and log in

Guitar Tabs Explorer
Pantera bass tabs for Heresy

Bass tabs with lyrics

This is the heresy guitar and bass tab. It comes from a book, so you don't
have to credit me for writing the tab.


Wilbert (wfpol@cs.ruu.nl)

-----------------------------------------------------------------------------
              HERESY - PANTERA
              ----------------

 Note lengths are written below the measures :
  w - whole note
  h - half note
  q - quarter note
  e - eight note
  s - sixteenth note
  t - thirty-second note

 Rest are noted as capitalized note lengths ie:
  W - whole rest
  H - half rest
  Q - quarter rest
  E - eight rest
  S - sixteenth rest
  T - thirty-second rest

 + is used to show slurs between notes, eg slide up from 5 to 7 without
 picking the 7 would be notated like :
  |---5/7----
    e+e
  sliding up with picking the 7 would be notated like :
  |---5/7----
    e e

 Notes without a note length are cue notes.

 h - hammer on
 p - pull off
 b - bend (amount of bend above the measure)
 r - release bend
 x - muffled string
 / - slide up
 \ - slide down
 ~ - vibrato (vib. above a measure means a more exaggerated vibrato)


            HERESY - PANTERA  BASS
            -----------------------


---||  7 |---------|---|---|---|---------|-----------------------|
---|| |--| |---------|---|---|---|---------|-----------------------|
---|| |--| |---------|---|---|---|---------|-----------------------|
---||   |-------0-|---|---|---|-------0-|---0-2-2-0-0-0-0-2-2-0-|
 E      H Q E e  W  W  W  H Q E e  E e s s e s s e s s e

|-----------------------|-----------------------|---------------||
|-----------------------|-----------------------|---------------||
|-----------------------|-----------------------|---------------||
|-0-0-0-4-4-0-0-0-0-3-0-|---0-2-2-0-0-0-0-2-2-0-|-0-0-------3-0-||
 s s e s s e s s e e e  E e s s e s s e s s e  s s E Q Q e e

||-------------------------|-----------------------|-----------------------|
||-o-----------------------|-----------------------|-----------------------|
||-o-----------------------|-----------------------|-----------------------|
||-----0-2-2-0-0-0-0-2-2-0-|-0-0-0-4-4-0-0-0-0-3-0-|---0-2-2-0-0-0-0-2-2-0-|
   E e s s e s s e s s e  s s e s s e s s e e e  E e s s e s s e s s e

               4x
|-------------------------------||
|-----------------------------o-||
|-----------------------------o-||
|-0-0-0-0-4-0-0-0-0-0-0-0-3-0---||
 s s s s s s s s s s s s e e

           |1,2,3.       |4.
||-------------------|-------------------||---------------||
||-o-----------------|-----------------o-||---------------||
||-o-----------------|-----------------o-||---------4---4-||
||-----0-7-0-6-0-4-6-|-7-0-6-0-3-4-5-0---||-7-0-6-0---4---||
   E e e e e e e e  e e e e e e e e   e e e e q q q
                          { 3 }

||-------------------|---------------|-----------------|
||-o-----------------|---------------|-----------------|
||-o-----------------|---------------|-----------------|
||---0-0-0-0-0-0-0-0-|-0-0-0-0-0-3-4-|-0-0-0-0-0-0-0-0-|
   e e e e e e e e  e e e e e q e  e e e e e e e e

|---------------|-----------------|---------------|-----------------|
|---------------|-----------------|---------------|-----------------|
|---------------|-----------------|---------------|-----------------|
|-0-0-0-0-0-1-2-|-0-0-0-0-0-0-0-0-|-0-0-0-0-0-3-4-|-0-0-0-0-0-0-0-0-|
 e e e e e q e  e e e e e e e e  e e e e e q e  e e e e e e e e

|---------------|-----------------|---------------|-----------------|
|---------------|-----------------|---------------|-----------------|
|---------6---6-|-----3-1-----3-1-|-----3-1-4---4-|-----3-1-----3-1-|
|-0-0-0-0---6---|-0-0-----0-0-----|-0-0-------4---|-0-0-----0-0-----|
 e e e e q q q  e e e e e e e e  e e e e q q q  e e e e e e e e
     { 3 }               { 3 }

|---------------|-----------------|---------------|-----------------|
|---------------|-----------------|---------------|-----------------|
|-----3-1-6---6-|-----3-1-----3-1-|-----3-1-4---4-|-----3-1-----3-1-|
|-0-0-------6---|-0-0-----0-0-----|-0-0-------4---|-0-0-----0-0-----|
 e e e e q q q  e e e e e e e e  e e e e q q q  e e e e e e e e
     { 3 }               { 3 }

|---------------|-----------------|---------------|-----------------|
|---------------|-----------------|---------------|-----------------|
|-----3-1-------|-----------------|---------------|-----------------|
|-0-0-----4-5-6-|-0-0-0-0-0-0-0-0-|-0-0-0-0-0-3-4-|-0-0-0-0-0-0-0-0-|
 e e e e q q q  e e e e e e e e  e e e e e q e  e e e e e e e e
     { 3 }

|---------------|-----------------|---------------|---|---------------|
|---------------|-----------------|---------------|---|---------4-----|
|---------------|-----------------|---------------|-R-|-R-3---3---0-3-|
|-0-0-0-0-0-1-2-|-0-0-0-0-0-0-0-0-|-0-0-0-0-0-3-4-|---|-----3---------|
 e e e e e q e  e e e e e e e e  e e e e e q e  w  e e e e e q e

|-----------------|-----------------|-----------------|-----------------|
|-----------------|-----------------|-----------------|-----------------|
|-4-4-4-0-1-1-1---|-------1-2-2-2-3-|-4-4-4-0-1-1-----|---------------3-|
|---------------2-|-3-3-3-----------|-------------4\2-|-0-0-0-0-0-0-0---|
 e e e e e e e e  e e e e e e e e  e e e e e e e e  e e e e e e e e

|-----------------|-----------------|-----------------|-------------|
|-----------------|-----------------|-----------------|- riff 1 2x -|
|-4-4-4-0-1-1-1---|-------1-2-2-2-3-|-4-4-4-0-1-1-----|-------------|
|---------------2-|-3-3-3-----------|-------------2-0-|-------------|
 e e e e e e e e  e e e e e e e e  e e e e e e e e

|1.                               (2/4) (4/4)
|-----------------|--------------|-----------------|------------|--------||
|-----------------|--------------|-----------------|------------|------o-||
|-----------------|--------------|-----------------|------------|-R----o-||
|-R-0-7-0-6-0-4-6-|-7-0-6-0-4-6--|-0-0-7-0-6-0-4-6-|-7-6--2-3-R-|--------||
 e e e e e e e e  e e e e e q.  e e e e e e e e  e q. e e q  h

|2. (2/4) (4/4)
|---|------||-----------------|---|---------------|---|---------------|---|
|---|------||-o---------------|---|---------------|---|---------------|---|
|-R-|--R---||-o---------------|---|---------------|-3-|---------------|---|
|---|------||---0-0-0-4-0-0-2-|-0-|-0-0-0-4-0-0-2-|---|-0-0-0-4-0-0-2-|-0-|
 w  h    e e e e e e q  w  e e e e e e q  w  e e e e e e q  w

               4x
|--------------------|----------------|||-------------------|-----------------|
|--------------------|--------------o-|||-o-----------------|-----------------|
|-0-0-0-3-0-0-2-|-1-0--------o-|||-o-----------------|-----------------|
|--------------------|------3-3-1---|||---0-0-0-3-0-0-0-0-|-0-3-0-0-0-0-0-0-|
 e e e e e e q  q q e e q     e e e e e e e e  e e e e e e e e

|-----------------|-----------------|-----------------|-----------------|
|-----------------|-----------------|-----------------|-----------------|
|-----------------|-----------------|-----------------|-----------------|
|-0-0-0-3-0-0-0-0-|-0-3-0-0-0-0-0-0-|-0-0-0-3-0-0-0-0-|-0-3-0-0-0-0-0-0-|
 e e e e e e e e  e e e e e e e e  e e e e e e e e  e e e e e e e e

|-----------------------|--------------|||-------------------|-----------------|
|-----------------------|-------------o-|||-o-----------------|-----------------|
|-0-0-0-0-0-0-0-0-|-3-2-0-----o-|||-o-----------------|-----------------|
|-----------------------|--------3-1---|||---2-0-0-3-0-0-2-0-|-0-3-0-0-2-2-2-2-|
 e e e e e e e e  q q e e q     e e e e e e e e  e e e e e e e e

|-----------------|-----------------|-----------------|-----------------|
|-----------------|-----------------|-----------------|-----------------|
|-----------------|-----------------|-----------------|-----------------|
|-2-0-0-3-0-0-2-0-|-0-3-0-0-2-2-2-2-|-2-0-0-3-0-0-2-0-|-0-3-0-0-2-2-2-2-|
 e e e e e e e e  e e e e e e e e  e e e e e e e e  e e e e e e e e

|1,2,3.             |4.
|---------------|------------------------|||---------------------|-------------------||
|---------------|---------------------o-|||-o-------------------|------------------o-||
|-3-2-0-----3-2-|-0-----3-2-----o-|||-o-3-2-0-----3-2-|-0-----3-2-0---o-||
|-------2-0-------|---2-0-----0------|||---------2-0--------|---2-0-------2-----||
 e e e q e e e  e q e e e q     e e e q e e e  e q e e e e e

|---|-------------|-----------------------|-------------------------|
|---|- riff 1 2x -|-----------------------|-------------------------|
|---|-------------|-----------------------|-------------------------|
|-3-|-------------|-R-0-2-2-0-0-0-0-2-2-0-|-0-0-0-2-2-0-0-0-0-2-2-0-|
 w         e e s s e s s e s s e  s s e s s e s s e s s e

|---------------------------------|---------------------------------|
|---------------------------------|---------------------------------|
|---------------------------------|---------------------------------|
|-3-4-4-4-4-4-4-4-4-4-4-4-4-4-4-4-|-4-4-4-4-4-4-4-4-4-5-5-5-5-5-5-5-|
 s s s s s s s s s s s s s s s s  s s s s s s s s s s s s s s s s

|-----------------------|-----------------------|
|-----------------------|-----------------------|
|-----------------------|-----------------------|
|-0-0-2-2-0-0-0-0-2-2-0-|-0-0-2-2-0-0-0-0-2-2-0-|
 e e s s e s s e s s e  e e s s e s s e s s e

|---------------------------------|---------------------------------|
|---------------------------------|---------------------------------|
|---------------------------------|---------------------------------|
|-3-4-4-4-4-4-4-4-4-4-4-4-4-4-4-4-|-4-4-4-4-4-4-4-4-4-5-5-5-5-5-5-5-|
 s s s s s s s s s s s s s s s s  s s s s s s s s s s s s s s s s

|-------------|---||
|-------------|---||
|-3-5-4-6---7-|---||
|---------6---|-0-||
 q q q q q q  e
 { 3 } { 3 }

Almost there ...

Sign in to get your own page with links to favourite songs and more. You are just one click away...

Login with Facebook Login with Google