Log in

One click and you are in

Login with Facebook Login with Google

Why sign up and log in

Guitar Tabs Explorer
Pantera bass tabs for Domination

Bass tabs with lyrics

Intro
 Fast Heavy Rock Q=280
 4/4
 W
|-----------------|
|-----------------|
|-----------------|
|-----------------|

 Q  E Q  E Q   Q  E Q  E Q   Q  E Q  E Q   Q  E Q  E Q
|-----------------|-----------------|-----------------|-----------------|
|-----------------|-----------------|-----------------|-----------------|
|-------7---5-7---|-------7---5-7---|-------7---5-7---|-----------------|
|-0---0-----------|-0---0-----------|-0---0-----------|-0---0-3---5-3---|

 Q  E Q  E Q   Q  E Q  E Q   Q  E Q  E Q   Q  E Q  E Q
|-----------------|-----------------|-----------------|-----------------|
|-----------------|-----------------|-----------------|-----------------|
|-------7---5-7---|-------7---5-7---|-------7---5-7---|-----------------|
|-0---0-----------|-0---0-----------|-0---0-----------|-0---0-5---6-3---|

 E E E Q  E Q   E E E Q  E Q   E E E Q  E Q   E E E Q  E Q
|-----------------|-----------------|-----------------|-----------------|
|-----------------|-----------------|-----------------|-----------------|
|-------7---5-7---|-------7---5-7---|-------7---5-7---|-----------------|
|-0-0-0-----------|-0-0-0-----------|-0-0-0-----------|-0-0-0-3---5-3---|

 E E E Q  E Q   E E E Q  E Q   E E E Q  E Q   Q  E Q  E Q
|-----------------|-----------------|-----------------|----------------||
|-----------------|-----------------|-----------------|----------------||
|-------7---5-7---|-------7---5-7---|-------7---5-7---|----------------||
|-0-0-0-----------|-0-0-0-----------|-0-0-0-----------|-0---0-5---6-3--||


 Half-time feel Q=147
 E S E S E E S E S E  E S E S E E S E S E  E S E S E E S E S E
|---------------------------|---------------------------|---------------------------|
|---------------------------|---------------------------|---------------------------|
|------7--5-7-------7--5-7--|------7--5-7---------------|------7--5-7-------7--5-7--|
|-0--0---------0--0---------|-0--0---------0--0-3--5-3--|-0--0---------0--0---------|

 E S E S E E S E S E  E S E S E E S E S E  E S E S E E S E S E
|---------------------------|---------------------------|---------------------------|
|---------------------------|---------------------------|---------------------------|
|------7--5-7---------------|------7--5-7-------7--5-7--|------7--5-7---------------|
|-0--0---------0--0-5--6-3--|-0--0---------0--0---------|-0--0---------0--0-3--5-3--|

               |-3-| |-3-| |-3-|
 E S E S E E S E S E  E E E E E E E E E Q
|---------------------------|------------------------||
|---------------------------|------------------------||
|------7--5-7-------7--5-7--|-2-2-2-3-3-3-4-4-4-5\---||
|-0--0-------0---0----------|------------------------||

 Slightly slower Q=140
 S S S S E E H   S S S S E E H   S S S S E E H   S E S E S E S E E E
|------------------|------------------|------------------|---------------------------|
|------------------|------------------|------------------|---------------------------|
|------------------|------------------|------------------|-2-2--1-1--0-0-------------|
|-0-0-0-0-0--------|-0-0-0-0-0--------|-0-0-0-0-0--------|----------------3-3--2--1--|


 1st and 2nd Verses
  S S S S E E H   S S S S E E H   S S S S E E H   S S S S E E H
||-------------------|------------------|------------------|------------------|
||o------------------|------------------|------------------|------------------|
||o------------------|------------------|------------------|------------------|
||--0-0-0-0-0--------|-0-0-0-0-0--------|-0-0-0-0-0--------|-0-0-0-0-0--------|

 S S S S E E H   S S S S E E H   S S S S E E H   S E S E S E S E E E
|------------------|------------------|------------------|---------------------------|
|------------------|------------------|------------------|---------------------------|
|------------------|------------------|------------------|-2-2--1-1--0-0-------------|
|-0-0-0-0-0--------|-0-0-0-0-0--------|-0-0-0-0-0--------|----------------3-3--2--1--|

  S S S S E E H   S S S S E E H   S S S S E E H   S S S S E S S S S E S S E
|------------------|------------------|------------------|------------------------------|
|------------------|------------------|------------------|------------------------------|
|------------------|------------------|------------------|--------------------1------1--|
|-0-0-0-0-0--------|-0-0-0-0-0--------|-0-0-0-0-0--------|-0-0-0-0-0--0-0-0-0----0-0----|


| S S S S E E H   S S S S E E H   S S S S E E H   S E S E S E S E E E
|------------------|------------------|------------------|---------------------------||
|------------------|------------------|------------------|---------------------------||
|------------------|------------------|------------------|-2-2--1-1--0-0-------------||
|-0-0-0-0-0--------|-0-0-0-0-0--------|-0-0-0-0-0--------|----------------3-3--2--1--||

 Pre-Chorus
 Slightly Faster Q=143
 H   +E E E E  Q E E H     S S S S E E Q  Q   S S S S E E Q  Q
|-----------------|----------------|------------------------|------------------------|
|-----------------|----2-1-0-------|------------------------|------------------------|
|-3-----(3)-------|----------------|-------------------7\---|-------------------7\---|
|-----------0-1-2-|-3--------------|-0-0-0-0-0--------------|-0-0-0-0-0--------------|


 S S S S E E Q  Q   S E S E S E S E E E  H   +E E E E  Q E E H
|------------------------|---------------------------|-----------------|----------------|
|------------------------|---------------------------|-----------------|----------------|
|-------------------7\---|-2-2--1-1--0-0-------------|-3-----(3)-------|----------------|
|-0-0-0-0-0--------------|----------------3-3--2--1--|-----------0-1-2-|-3--3-2-1-------|

                                        |-3-| |-3-|
 S S S S E E Q  Q   S S S S E Q  E +Q   S S S S E E Q  Q   Q Q Q Q Q Q
|------------------------|--------------------------|------------------------|-------------||
|------------------------|--------------------------|------------------------|-----------0-||
|-------------------7\---|----------------/13-(13)--|-------------------7\---|-----0-2-3---||
|-0-0-0-0-0--------------|-0-0-0-0-0----------------|-0-0-0-0-0--------------|-0-3---------||


 Chorus
 E S E S E E S E S E  E S E S E E S E S E  E S E S E E S E S E
|---------------------------|---------------------------|---------------------------|
|---------------------------|---------------------------|---------------------------|
|------7--5-7-------7--5-7--|------7--5-7---------------|------7--5-7-------7--5-7--|
|-0--0---------0--0---------|-0--0---------0--0-3--5-3--|-0--0---------0--0---------|

 E S E S E E S E S E  E S E S E E S E S E  E S E S E E S E S E
|---------------------------|---------------------------|---------------------------|
|---------------------------|---------------------------|---------------------------|
|------7--5-7---------------|------7--5-7-------7--5-7--|------7--5-7---------------|
|-0--0---------0--0-5--6-3--|-0--0---------0--0---------|-0--0---------0--0-3--5-3--|

               6/4
                      |-3-| |-3-| |-3-|
 E S E S E E S E S E  E S E S E E E E E E E E E E Q
|---------------------------|------------------------------------|
|---------------------------|------------------------------------|
|------7--5-7-------7--5-7--|------7--5-7--2-2-2-3-3-3-4-4-4-5\--|
|-0--0-------0---0----------|-0--0-------------------------------|

 1.
 4/4
 W      +H.   +Q   S S S S E E H   S S S S E E H
|------------|---------------|------------------|------------------|
|------------|---------------|------------------|------------------|
|------------|---------------|------------------|------------------|
|-5----------|-(5)------(5)\-|-0-0-0-0-0--------|-0-0-0-0-0--------|


 S S S S E E H   S E S E S E S E E E
|------------------|---------------------------||
|------------------|--------------------------o||
|------------------|-2-2--1-1--0-0------------o||
|-0-0-0-0-0--------|----------------3-3--2--1--||

 2.
 W      +W      W      +H.    Q
|------------|------------|------------|---------------||
|------------|------------|------------|---------------||
|------------|------------|------------|---------------||
|-5----------|-(5)--------|-5----------|-(5)-------5\--||


 Bridge
 Slightly Faster Q=145
| S S S S E S S H   S S S S E S S H   S S S S E S S H   S S S S E S S E E Q
|---------------------|---------------------|---------------------|--------------------------|
|---------------------|---------------------|---------------------|--------------------------|
|---------7-----------|---------7-----------|---------7-----------|---------7---------7--7\--|
|-0-0-0-0----0-0------|-0-0-0-0----0-0------|-0-0-0-0----0-0------|-0-0-0-0----0-0-----------|


 S S S S E S S H    S S S S E S S Q  S S S S  S S S S E S S H    S S S S E S S E E E E
|---------------------|------------------------------|---------------------|------------------------|
|---------------------|------------------------------|---------------------|------------------------|
|---------7-----------|--5-7-----7--------------5h7--|---------7-----------|-5-7-----7--------7-7---|
|-0-0-0-0----0-0------|------0-0----0-0-----5h7------|-0-0-0-0----0-0------|-----0-0----0-0-------7-|


 E E E S S H    S S S S E S S Q S S S S  S S S S E S S H   E E S S E E S S Q
|---------------------|----------------------------|---------------------|--------------------------||
|---------------------|----------------------------|---------------------|--------------------------||
|-------7-------------|-5-7-----7--------------5h7-|-5-7-----7-----------|-7-----7-7-7---------7\---||
|-0--0-----0-0--------|-----0-0----0-0----5h7------|-----0-0----0-0------|----0------------0-0------||


 Guitar Solo
 S S S S E S S H   S S S S E S E. E S S E  S S S S E S S H    S S S S E S E. E S S E
|---------------------|---------------------------|----------------------|---------------------------|
|---------------------|---------------------------|----------------------|---------------------------|
|-5-7-----7-----------|-5-7-----7--------------5--|-5-7-----7------------|-5-7-----7--------------5--|
|-----0-0----0-0------|-----0-0----0-0--0--5-7----|-----0-0----0-0-------|-----0-0----0-0--0--5-7----|


 S S S S E S S H   S S S S E S E. E S S E  S S S S E S S H    S S S S E S E. E S S E
|---------------------|---------------------------|----------------------|---------------------------||
|---------------------|---------------------------|----------------------|---------------------------||
|-5-7-----7-----------|-5-7-----7--------------5--|-5-7-----7------------|-5-7-----7--------------5--||
|-----0-0----0-0------|-----0-0----0-0--0--5-7----|-----0-0----0-0-------|-----0-0----0-0--0--5-7----||


 Harmony Guitar Section
 H   +E E E E  Q  E E Q  Q   S S S S E S E. E S S E  S S S S E S E. E Q
|------------------|-----------------|---------------------------|------------------------|
|------------------|-----2-1-0---0---|---------------------------|------------------------|
|-3------(3)-------|-----------------|-5-7-----7--------------5--|-5-7-----7--------------|
|------------0-1-2-|-3---------------|-----0-0----0-0--0--5-7----|-----0-0----0-0--0------|


 S S S S E S E. E S S E  S S S S E Q  E E E  H   +E E E E  Q E E Q  Q
|---------------------------|-----------------------|------------------|----------------|
|---------------------------|-----------------7-8-9-|------------------|----------------|
|-5-7-----7--------------5--|-5-7--------7----------|-3------(3)-------|----------------|
|-----0-0----0-0--0--5-7----|-----0-0-0-------------|------------0-1-2-|-3--3-2-1---1---|

                   Slow Down Q=120  And Slower Q=100
 E E E E E E E E  E E E E E E E E  E E E E E E E E  E E E E E E E E
|-----------------|-----------------|-----------------|-----------------|
|-----------------|-----------------|-----------------|-----------------|
|-3-3-3-3-3-3-3-3-|-4-4-4-4-4-4-4-4-|-5-5-5-5-5-5-5-5-|-6-6-6-6-6-6-6-6-|
|-----------------|-----------------|-----------------|-----------------|

  Breakdown
 Slow Heavy Rock Q=82
  S S e S S e S S e S S e  E S S e S S e S S e E 4x
||------------------------------|---------------------------||
||o-----------------------------|--------------------------o||
||o-----------------------------|--------------------------o||
||--1-1-1--1-1-1--1-1-1--1-1-1--|---1-1-1--1-1-1--1-1-1-----||

  Guitar Break
  S S e S S e S S e S S e  E S S e S S e S S e E 4x
||------------------------------|---------------------------||
||o-----------------------------|--------------------------o||
||o-----------------------------|--------------------------o||
||--1-1-1--1-1-1--1-1-1--1-1-1--|---1-1-1--1-1-1--1-1-1-----||

  Outro
  S S S S S S S S S S S S S S S S  E S S e S S e S S e E
||----------------------------------|---------------------------|
||o---------------------------------|---------------------------|
||o---------------------------------|---------------------------|
||--2-2-2-2-2-2-2-2-2-2-2-2-2-2-2-2-|---1-1-1--1-1-1--1-1-1-----|


| S S S S S S S S S S S S S S S S  E S S e S S e S S e E
|---------------------------------|---------------------------||
|---------------------------------|--------------------------o||
|---------------------------------|--------------------------o||
|-2-2-2-2-2-2-2-2-2-2-2-2-2-2-2-2-|---1-1-1--1-1-1--1-1-1-----||

Almost there ...

Sign in to get your own page with links to favourite songs and more. You are just one click away...

Login with Facebook Login with Google