Log in

One click and you are in

Login with Facebook Login with Google

Why sign up and log in

Guitar Tabs Explorer
Pantera tabs for Dallas stars fight song

Guitar tabs

e-------------------------------------------------------------------------|
B-------------------------------------------------------------------------|
G-------------------------------------------------------------------------|
D-------------------9/-----------------9/---------------------------------|
A----2-2--2---2-2---7/---2-2--2---2-2--7/---------------------------------|
E----0-0--0---0-0--------0-0--0---0-0-------------------------------------|

|-------------------------------------------------------------------------|
|-------------------------------------------------------------------------|
|-------------------------------------------------------------------------|
|-------------------------------------------------------------------------|
|------7--------5~-----5----------------5---7---5-------------------------|
|----0---5-6-7----6-7---7-6-5-0---5-6-7---7---7---7-6-5-------------------|


|-------------------------------------------------------------------------|
|-------------------------------------------------------------------------|
|-------------------------------------------------------------------------|
|-------------------------------------------------------------------------|
|---------------5~-----5----------------5---7---5-------------------------|
|----0---5-6-7----6-7---7-6-5-0---5-6-7---7---7---7-6-5-------------------|


|-------------------------------------------------------------------------|
|-------------------------------------------------------------------------|
|-------------------------------------------------------------------------|
|-------------3~----3-------------------3---5---3-------------------------|
|--------3-4-5---4-5---5-4-3------3-4-5---5---5---5-4-3-------------------|
|----3------------------------3-------------------------------------------|

|-------------------------------------------------------------------------|
|-------------------------------------------------------------------------|
|-------------------------------------------------------------------------|
|---------------5~---7--5-7-5---------------------------------------------|
|-----0---5-6-7----7------------------------------------------------------|
|-------------------------------------------------------------------------|


|-------------------------------------------------------------------------|
|-------------------------------------------------------------------------|
|-------------------------------------------------------------------------|
|----3-4-5-6-7-8----------------------------------------------------------|
|----1-2-3-4-5-6----------------------------------------------------------|
|-------------------------------------------------------------------------|


|-------------------------------------------------------------------------|
|-------------------------------------------------------------------------|
|-------------------------------------------------------------------------|
|------------------9/------------------9/---------------------------------|
|----2-2--2---2-2--7/----2-2--2---2-2--7/---------------------------------|
|----0-0--0---0-0--------0-0--0---0-0-------------------------------------|


|-------------------------------------------------------------------------|
|-------------------------------------------------------------------------|
|-------------------------------------------------------------------------|
|-------------------------------------------------------------------------|
|----2-2--2-2-2-2-2------5---2-2--2-2-2-----------------------------------|
|----0-0--0-0-0-0-0--6-7-----0-0--0-0-0---565-3-5-565-3-5-----------------|


|-------------------------------------------------------------------------|
|-------------------------------------------------------------------------|
|-------------------------------------------------------------------------|
|-------------------------------------------------------------------------|
|----2-2--2-2-2-2-2------5--2-2--2-2-2------5-----5-----------------------|
|----0-0--0-0-0-0-0--6-7----0-0--0-0-0--6-7---6-7-------------------------|


|-------------------------------------------------------------------------|
|-------------------------------------------------------------------------|
|-------------------------------------------------------------------------|
|------------3---5--3-5-3---------------7---9--7-9-7----------------------|
|------3-4-5---5---------------0--7-8-9---9-------------------------------|
|----3--------------------------------------------------------------------|


|-------------------------------------------------------------------------|
|-------------------------------------------------------------------------|
|------------1---3--1-3-1-------------------------------------------------|
|------1-2-3---3-----------4-5-6-7-8-9--------------9/--------------------|
|----1---------------------2-3-4-5-6-7----2-2--2-2--7/--------------------|
|-----------------------------------------0-0--0-0------------------------|


~ = vibrate
/ = slide down

hope you enjoyed ;-)

Almost there ...

Sign in to get your own page with links to favourite songs and more. You are just one click away...

Login with Facebook Login with Google