Log in

One click and you are in

Login with Facebook Login with Google

Why sign up and log in

Guitar Tabs Explorer
Pantera tabs for Cowboys from hell

Intro

PM=palm mute
h=hammer on

i'm positive that this tab is 100% correct.

1/---------------------------------------
2/---------------------------------------
3/---------------------------------------
4/----------------------------------12---
5/-------------12--12--13--12--12h13-----
6/--12-15-12-15--15--15--15--15----------
 PM...................................

repeat top 3 timesand on the and the 4th time play bottom once and slide the last note up the fretboard.

1/---------------------------------------
2/---------------------------------------
3/---------------------------------------
4/---------------------------------------
5/-------------12--12--13-12-------------
6/--12-15-12-15--15--15-----15-12/////---
 pm....................

Other versions of Cowboys From Hell

Cowboys from hellTabs
Cowboys from hell (Ver. 2)Tabs
Cowboys from hell ukulele - introTabs

Almost there ...

Sign in to get your own page with links to favourite songs and more. You are just one click away...

Login with Facebook Login with Google