Log in

One click and you are in

Login with Facebook Login with Google

Why sign up and log in

Guitar Tabs Explorer
Pantera bass tabs for Cowboys from hell

Bass tabs

Cowboys from Hell - Pantera
    ---------------------------


	riff 1
 8  ||---------------------------------|-----|-----|
 |--| ||-o-------------------------------|- % -|- % -|
 |--| ||-o-----------------------------5-|-----|-----|
   ||---0-3-0-3-5-3-5-5-6-3-5-3-5/7---|-----|-----|
      s s s s s s s s s s s s s s e

		   end riff 1
|-----------------------------||-----|-----|-----|
|---------------------------o-||-----|-----|-----|
|-------------------------R-o-||---R-|---R-|---R-|
|-0-3-0-3-5-3-5-3-6-5-3-0-----||-0---|-0---|-0---|
 s s s s s s s s s s s s q   q h.. q h.. q h..

riff 2
|---------------------------------|---------------------------------|
|-----------------------0-------0-|-------------------------------0-|
|-----------------0-1-2---0-1-2---|-------------------------0-1-2---|
|-0-0-R-0-R-0-R-0-----------------|-0-0-R-0-R-0-R-0-R-0-R-0---------|
 s s s s s s s s s s s e s s s e  s s s s s s s s s s s s s s s e
		 { 3 }  { 3 }               { 3 }

|-------------------------------------|---------------------------------|
|-------------------------------------|-------------------------------0-|
|-----------------0-1-0-----0-1-0-----|-------------------------0-1-2---|
|-0-0-R-0-R-0-R-0-------3-3-------3-0-|-0-0-R-0-R-0-R-0-R-0-R-0---------|
 s s s s s s s s s s s s s s s s s s  s s s s s s s s s s s s s s s e
		 { 3 }   { 3 }                { 3 }

	  end riff 2
|---------------------||---||-----------------------------------|
|---------------------||-o-||-o---------------------------------|
|---------------------||-o-||-o---------------------------------|
|-0-0-R-0-R-0-R-0-R-0-||---||---0-0-R-0-R-0-R-0-R-0-R-0-0-0-0-R-|
 s s s s e e e e e e      s s s s s s s s s s s s s s s s

|---------------------------------|---------------------------------|
|-------------------------------0-|---------------------------------|
|-------------------------0-1-2---|---------------------------------|
|-0-0-R-0-R-0-R-0-R-0-R-0---------|-0-0-R-0-R-0-R-0-R-0-R-0-0-0-0-R-|
 s s s s s s s s s s s s s s s e  s s s s s s s s s s s s s s s s
			 { 3 }

|---------------------------------------||----------------------------|
|-------------------------------------o-||----------------------------|
|-----------------0-1-0-----0-1-0-----o-||----------------------------|
|-0-0-R-0-R-0-R-0-------3-3-------3-0---||-3-3-3-3-3-3-3-3-3-3-3-4-4--|
 s s s s s s s s s s s s s s s s s s   s s s s s s s s s s s e e.
         { 3 }   { 3 }

|--------------------------|---------------------------------|
|--------------------------|---------------------------------|
|-------------------1--0---|---------------------------------|
|-3-3-3-3-3-3-3-3-3------4-|-0-0-R-0-R-0-R-0-R-0-R-0-0-0-0-R-|
 s s s s s s s s s e. e e  s s s s s s s s s s s s s s s s

                     |1.
|---------------------------|-------------|---|------|---------------||
|---------------------------|- riff 1 2x -|---|------|- riff 2 1x -o-||
|-----------------1-0-----R-|-------------|-R-|---R--|-------------o-||
|-0-0-R-0-R-0-R-0-----3-0---|-------------|---|-0----|---------------||
 s s s s s s s s s s s s q         w  e h..

|2.
|--------------------------||-------------------|-----------------|
|--------------------------||-o-----------------|-----------------|
|--------------------------||-o-----------------|-R-3-R-3-R-3-R-3-|
|-0-3-0-3-5-3-5-3-0-3--2-1-||---R-0-R-0-R-0-R-0-|-----------------|
 s s s s s s s s s e. e e   e e e e e e e e  e e e e e e e e

				   4x riff 3
|-----------------|--------------------|||--------------------------------|
|-----------------|------------------o-|||-o------------------------------|
|-R-4-R-4-R-4-R-4-|-R-5-R-5-R-1--0---o-|||-o-7-5-------------7-5-5-7------|
|-----------------|----------------3---|||-------0-0-0-0-0-0----------0-0-|
 e e e e e e e e  e e e e s e. e e    s s s s s s s s s s s e. s s

					 			   end riff 3
|-------------------------------|---|-14\12----12\11----11\9----9\7---7\6-----||
|---------------------7/8\7-----|-%-|-------14-------12------11-----9-----7-o-||
|-7-5-------------7-5-----------|---|---------------------------------------o-||
|-----0-0-0-0-0-0-----------0-0-|---|-----------------------------------------||
 s s s s s s s s s s s s e s s    s s s s s s s s s s s s s s e

|--------|--------------|--------|--------------------|-------------|
|--------|--------------|--------|--------------------|- riff 1 2x -|
|-----7\-|-----7\-R-----|-----7\-|-----7\-1-0---------|-------------|
|-0-R----|-0-R------0-R-|-0-R----|-0-R--------3-0-(0)-|-------------|
 e e h.  e e q e e q  e e h.  e e q s s s s (q)


|---------------------------|-------------------------------|
|---------------------------|-------------------------------|
|---------------------------|-----------------------------5-|
|-0-3-0-3-5-3-5-3-6-5-3-0-R-|-0-3-0-3-5-3-5-3-6-3-5-3-5/7---|
 s s s s s s s s s s s s q  s s s s s s s s s s s s s s e

|---------------------------|-------------|-----------------------------||
|---------------------------|- riff 3 2x -|-----------------------------||
|---------------------------|-------------|---------------0-1-0---------||
|-0-3-0-3-5-3-5-3-6-5-3-0-R-|-------------|-0-0-0-0-R-0-R-------3-3-0-R-||
 s s s s s s s s s s s s q         s s s s s s e s s s e s s e
                             { 3 }


Contributed by Wilbert Pol.

Almost there ...

Sign in to get your own page with links to favourite songs and more. You are just one click away...

Login with Facebook Login with Google